Guitar Tabs Explorer
Nickelback guitar tabs for Animals

Animals tab


Be the first to rate

Animals tab by Nickelback

Guitar tabs

Print
ANIMALS
----------
Album, "All the Right Reasons"
written by Nickelback
performed by Nickelback
transcription by F chord diagramFF Kuwanoe (mad1n6@yahoo.com)




Intro
 Repeat 4X            Repeat 2X

|-2-2--1--3--3-3-3--|-2-2--1--3--3-3-3--1-1/3-3--2-2--1--3--3-3-3-|
|-3-3--1--4--3-3-3--|-3-3--1--4--3-3-3--2-2/4-4--3-3--1--4--3-3-3-|
|-2-2--2--5--4-4-4--|-2-2--2--5--4-4-4--3-3/5-5--2-2--2--5--4-4-4-|
|-0-0--3--5--5-5-5--|-0-0--3--5--5-5-5--3-3/5-5--0-0--3--5--5-5-5-|
|------3--3--5-5-5--|------3--3--5-5-5--1-1/3-3-------3--3--5-5-5-|
|------1-----3-3-3--|------1-----3-3-3-----/----------1-----3-3-3-|


Verses


|-5--5-5-5--5-5-5--5-5-5--5-3-3--3-3-3--3-3-3--3-3-3--3-5-5
|-6--6-6-6--6-6-6--6-6-6--6-3-3--3-3-3--3-4-4--4-4-4--4-6-6
|-7--7-7-7--7-7-7--7-7-7--7-4-4--4-4-4--4-5-5--5-5-5--5-7-7
|-7--7-7-7--7-7-7--7-7-7--7-5-5--5-5-5--5-5-5--5-5-5--5-7-7
|-5--5-5-5--5-5-5--5-5-5--5-5-5--5-5-5--5-3-3--3-3-3--3-5-5
|---------------------------3-3--3-3-3--3------------------



|-5-5-5--5-5-5--5-5-5--5-3-3--3-3-3--3-3333333-
|-6-6-6--6-6-6--6-6-6--6-3-3--3-3-3--3-4444444-
|-7-7-7--7-7-7--7-7-7--7-4-4--4-4-4--4-5555555-
|-7-7-7--7-7-7--7-7-7--7-5-5--5-5-5--5-5555555-
|-5-5-5--5-5-5--5-5-5--5-5-5--5-5-5--5-3333333-
|------------------------3-3--3-3-3--3---------


Chorus - First and Second Time
  Repeat 4X

|-2-2--1--3--3-3-3--1-1/3-3-3|
|-3-3--1--4--3-3-3--2-2/4-4-4|
|-2-2--2--5--4-4-4--3-3/5-5-5|
|-0-0--3--5--5-5-5--3-3/5-5-5|
|------3--3--5-5-5--1-1/3-3-3|
|------1-----3-3-3-----------|


  Repeat 4X

|-2-2--1--3--3-3-3--|
|-3-3--1--4--3-3-3--|
|-2-2--2--5--4-4-4--|
|-0-0--3--5--5-5-5--|
|------3--3--5-5-5--|
|------1-----3-3-3--|



Chorus - Third Time
  Repeat 8X

|-2-2--1--3--3-3-3--1-1/3-3-3|
|-3-3--1--4--3-3-3--2-2/4-4-4|
|-2-2--2--5--4-4-4--3-3/5-5-5|
|-0-0--3--5--5-5-5--3-3/5-5-5|
|------3--3--5-5-5--1-1/3-3-3|
|------1-----3-3-3-----------|


Outro

|-/5-xxxxxx-/5-xxxxxx-/5-xxxxxx-/5-xxxxxx-/5-xxxxxx|
|-/6-xxxxxx-/6-xxxxxx-/6-xxxxxx-/6-xxxxxx-/6-xxxxxx|
|-/7-xxxxxx-/7-xxxxxx-/7-xxxxxx-/7-xxxxxx-/7-xxxxxx|
|-/7-xxxxxx-/7-xxxxxx-/7-xxxxxx-/7-xxxxxx-/7-xxxxxx|
|-/5-xxxxxx-/5-xxxxxx-/5-xxxxxx-/5-xxxxxx-/5-xxxxxx|
|----000000----000000----000000----000000----000000|

Other versions of Animals

- AnimalsChords
- Animals (Ver. 2)Tabs

Comment this song and these guitar tabs

Do you have corrections, comments on the guitar tabs, thoughts about the song or a message to the author? Write them below.