Guitar Tabs Explorer
Nickelback guitar tabs for After the rain

After The Rain tab


Be the first to rate

Jamplay guitar lessons

After The Rain tab by Nickelback

Guitar tabs

Print

Intro:
E|----------------------------|----------------------------|
B|-----------9--------9-------|-----------9--------9-------|
G|-----6--8--8--------8-------|-----6--8--8--------8-------|
D|--6-------------------------|--6-------------------------|
A|----------------------------|----------------------------|
D|----------------------------|----------------------------| (x2)

E|----------------------------|----------------------------|
B|-----------9--------9-------|-----------9--------9-------|
G|-----6--8--9--------9-------|-----6--8--9--------9-------|
D|--6-------------------------|--6-------------------------|
A|----------------------------|----------------------------|
D|----------------------------|----------------------------| (x2)

Verse 1:
E|----------------------------|----------------------------|
B|-----------9--------9-------|-----------9--------9-------|
G|-----6--8--8--------8-------|-----6--8--8--------8-------|
D|--6-------------------------|--6-------------------------|
A|----------------------------|----------------------------|
D|----------------------------|----------------------------| (x2)

E|----------------------------|----------------------------|
B|-----------9--------9-------|-----------9--------9-------|
G|-----6--8--9--------9-------|-----6--8--9--------9-------|
D|--6-------------------------|--6-------------------------|
A|----------------------------|----------------------------|
D|----------------------------|----------------------------| (x2)

Chorus:
E|-------|-------|-------|-------|-------|-------|
B|-------|-------|-------|-------|-------|-------|
G|-------|-------|-------|-------|-------|-------|
D|--9----|--4----|--6----|--2----|--9----|--4----|
A|--9----|--4----|--6----|--2----|--9----|--4----|
D|--9----|--4----|--6----|--2----|--9----|--4----|

E|-------|-------|
B|-------|-------|
G|-------|-------|
D|--6----|--2----|
A|--6----|--2----|
D|--6----|--2----|

Verse 2:
E|----------------------------|----------------------------|
B|-----------9--------9-------|-----------9--------9-------|
G|-----6--8--8--------8-------|-----6--8--8--------8-------|
D|--6-------------------------|--6-------------------------|
A|----------------------------|----------------------------|
D|----------------------------|----------------------------| (x2)

E|----------------------------|----------------------------|
B|-----------9--------9-------|-----------9--------9-------|
G|-----6--8--9--------9-------|-----6--8--9--------9-------|
D|--6-------------------------|--6-------------------------|
A|----------------------------|----------------------------|
D|----------------------------|----------------------------| (x2)

E|----------------------------|----------------------------|
B|-----------9--------9-------|-----------9--------9-------|
G|-----6--8--8--------8-------|-----6--8--8--------8-------|
D|--6-------------------------|--6-------------------------|
A|----------------------------|----------------------------|
D|----------------------------|----------------------------| (x2)

E|----------------------------|----------------------------|
B|-----------9--------9-------|-----------9--------9-------|
G|-----6--8--9--------9-------|-----6--8--9--------9-------|
D|--6-------------------------|--6-------------------------|
A|----------------------------|----------------------------|
D|----------------------------|----------------------------| (x2)

Chorus:
E|-------|-------|-------|-------|-------|-------|
B|-------|-------|-------|-------|-------|-------|
G|-------|-------|-------|-------|-------|-------|
D|--9----|--4----|--6----|--2----|--9----|--4----|
A|--9----|--4----|--6----|--2----|--9----|--4----|
D|--9----|--4----|--6----|--2----|--9----|--4----|

E|-------|-------|
B|-------|-------|
G|-------|-------|
D|--6----|--2----|
A|--6----|--2----|
D|--6----|--2----|

Bridge:
E|------------------------|------------------------|------------------------|------------------------|
B|--------7--------7------|------------------------|------------------------|------------------------|
G|-----8--------8---------|--------11-------11-----|--------8--------8------|--------4--------4------|
D|--9--------9------------|-----8--------8---------|-----6--------6---------|-----2--------2---------|
A|------------------------|--9--------9------------|--6--------6------------|--2--------2------------|
D|------------------------|------------------------|------------------------|------------------------| (x2)

Chorus:
E|-------|-------|-------|-------|-------|-------|
B|-------|-------|-------|-------|-------|-------|
G|-------|-------|-------|-------|-------|-------|
D|--9----|--4----|--6----|--2----|--9----|--4----|
A|--9----|--4----|--6----|--2----|--9----|--4----|
D|--9----|--4----|--6----|--2----|--9----|--4----|

E|-------|-------|
B|-------|-------|
G|-------|-------|
D|--6----|--2----|
A|--6----|--2----|
D|--6----|--2----|

Other versions of After The Rain

- After the rainChords

Comment this song and these guitar tabs

Do you have corrections, comments on the guitar tabs, thoughts about the song or a message to the author? Write them below.