Log in

One click and you are in

Login with Facebook Login with Google

Why sign up and log in

Guitar Tabs Explorer
Muse bass tabs for Time is running out

Bass tabs

Album: Absolution
Bassist: Chris Wolstenholme
Tabbed By: Matt Lamont


For this song, i think it sounds a lot better with distortion...Very easy song for bass, but is still great. Any comments, send 'em to Football_Pro295@hotmail.com

Intro/Main Riff
G||--------------------------------|--------------------------------|--------------------------------|
D||--------------------------------|--------------------------------|--------------------------------|
A||--------------------------------|------5--7------7----7--------|------3-----------5------------|   REPEAT 5x
E||--5---8--5---8---5---7--5---|--7---------0-----0------0----|--1------1---3----------------|


Pre-Chorus  (00:41)
G||-------------------------------|-------------------------------|-------------------------------|--------------------------------|
D||-------------------------------|-------------------------------|-------------------------------|--------------------------------|
A||-------------------------------|-------------------------------|-------------------------------|--------------------------------|
E||--1--1--1--1--1--1--1--1--|--3--3--3--3--3--3--3--3--|--5--5--5--5--5--5--5--5---|--1--1--1--1--1--1--1--1---|


G||-------------------------------|--------------------------------|--------------------------------|--------------------------------|
D||-------------------------------|--------------------------------|--------------------------------|--------------------------------|
A||-------------------------------|--------------------------------|--------------------------------|--------------------------------|
E||--1--1--1--1--1--1--1--1--|--3--3--3--3--3--3--3--3---|--5--5--5--5--5--5--5--5----|--8--8--8--8--8--8--8--8---|


Chorus  (00:57)
G||-------------------------------|--------------------------------|--------------------------------|--------------------------------|
D||-------------------------------|--------------------------------|--------------------------------|--------------------------------|
A||-------------------------------|--------------------------------|--------------------------------|--------------------------------|
E||--1--1--1--1--1--1--1--1--|--3--3--3--3--3--3--3--3---|--5--5--5--5--5--5--5--5----|--8--8--8--8--8--8--8--8---|

G||-------------------------------|--------------------------------|--------------------------------|--------------------------------|
D||-------------------------------|--------------------------------|--------------------------------|--------------------------------|
A||-------------------------------|--------------------------------|--------------------------------|---------3-------------5-------|
E||--1--1--1--1--1--1--1--1--|--3--3--3--3--3--3--3--3---|--5--5--5--5--5--5--5--5---|--1--1------1--3--3------3---|


Bridge  (01:14)
G||-------------------------------|--------------------------------|--------------------------------|--------------------------------|
D||-------------------------------|--------------------------------|--------------------------------|--------------------------------|
A||-------------------------------|--------------------------------|--------------------------------|---------3-------------5-------|
E||--5--5--8--5-----------------|--7--7--5--7-----------------|--0--0--12--0----------------|--1--1------1--3--3-----3----|


Verse 2  (01:22)
G||-------------------------------|--------------------------------|--------------------------------|--------------------------------|
D||-------------------------------|--------------------------------|--------------------------------|--------------------------------|
A||-------------------------------|--------------------------------|--------------------------------|---------3-------------5-------|   REPEAT 2x
E||--5--5--8--5-----------------|--7--7--5--7-----------------|--0--0--12--0----------------|--1--1------1--3--3-----3----|


G||--------------------------------|--------------------------------|--------------------------------|
D||--------------------------------|--------------------------------|--------------------------------|
A||--------------------------------|------5--7------7----7--------|------3-----------5------------|
E||--5---8--5---8---5---7--5---|--7---------0-----0------0----|--1------1---3----------------|


Pre-Chorus  (01:46)
G||-------------------------------|--------------------------------|--------------------------------|--------------------------------|
D||-------------------------------|--------------------------------|--------------------------------|--------------------------------|
A||-------------------------------|--------------------------------|--------------------------------|--------------------------------|
E||--1--1--1--1--1--1--1--1--|--3--3--3--3--3--3--3--3---|--5--5--5--5--5--5--5--5---|--3--3--3--3--3--3--3--3----|


G||--------------------------------|--------------------------------|--------------------------------|--------------------------------|
D||--------------------------------|--------------------------------|--------------------------------|--------------------------------|
A||--------------------------------|--------------------------------|--------------------------------|--------------------------------|
E||--1--1--1--1--1--1--1--1---|--3--3--3--3--3--3--3--3---|--5--5--5--5--5--5--5--5---|--8--8--8--8--8--8--8--8----|


Chorus 2  (02:02)
G||--------------------------------|--------------------------------|--------------------------------|--------------------------------|
D||--------------------------------|--------------------------------|--------------------------------|--------------------------------|
A||--------------------------------|--------------------------------|--------------------------------|--------------------------------|  REPEAT 2x
E||--1--1--1--1--1--1--1--1---|--3--3--3--3--3--3--3--3---|--5--5--5--5--5--5--5--5---|--8--8--8--8--8--8--8--8----|


Bridge 2  (02:18)
G||------------------------0--0--|--2--2--4--4--5--5--7--7--|
D||--0--0--2--2--3--3----------|-------------------------------|
A||--------------------------------|-------------------------------|  REPEAT 3x
E||--------------------------------|-------------------------------|


G||--------------------------------|-------------------------------|
D||--------------------------------|-------------------------------|
A||--2--2--2--2--2--2---2--2--|--2--2--2--2--2--2--2--2--|
E||--------------------------------|-------------------------------|


Main Riff 2  (02:34)
G||--------------------------------|--------------------------------|--------------------------------|
D||--------------------------------|--------------------------------|--------------------------------|
A||--------------------------------|------5--7------7----7--------|------3-----------5------------|   REPEAT 3x
E||--5---8--5---8---5---7--5---|--7---------0-----0------0----|--1------1---3----------------|


Pre-Chorus  (02:59)
G||-------------------------------|--------------------------------|--------------------------------|--------------------------------|
D||-------------------------------|--------------------------------|--------------------------------|--------------------------------|
A||-------------------------------|--------------------------------|--------------------------------|--------------------------------|
E||--1--1--1--1--1--1--1--1--|--3--3--3--3--3--3--3--3---|--5--5--5--5--5--5--5--5---|--3--3--3--3--3--3--3--3----|


G||--------------------------------|--------------------------------|--------------------------------|--------------------------------|
D||--------------------------------|--------------------------------|--------------------------------|--------------------------------|
A||--------------------------------|--------------------------------|--------------------------------|--------------------------------|
E||--1--1--1--1--1--1--1--1---|--3--3--3--3--3--3--3--3---|--5--5--5--5--5--5--5--5---|--8--8--8--8--8--8--8--8----|


Chorus 2  (3:15)
G||--------------------------------|--------------------------------|--------------------------------|--------------------------------|
D||--------------------------------|--------------------------------|--------------------------------|--------------------------------|
A||--------------------------------|--------------------------------|--------------------------------|--------------------------------|  REPEAT 2x
E||--1--1--1--1--1--1--1--1---|--3--3--3--3--3--3--3--3---|--5--5--5--5--5--5--5--5---|--8--8--8--8--8--8--8--8----|


Bridge 2  (03:31)
G||------------------------0--0--|--2--2--4--4--5--5--7--7--|
D||--0--0--2--2--3--3----------|-------------------------------|
A||--------------------------------|-------------------------------|  REPEAT 3x
E||--------------------------------|-------------------------------|


G||--------------------------------|-------------------------------|
D||--------------------------------|-------------------------------|
A||--2--2--2--2--2--2---2--2--|--2--2--2--2--2--2--2--2--|
E||--------------------------------|-------------------------------|


G||--------------------------------|--------------------------------|--------------------------------|--------------------------------||
D||--------------------------------|--------------------------------|--------------------------------|--------------------------------||
A||--------------------------------|--------------------------------|--------------------------------|--------------------------------||
E||--5--5--8--5------------------|--5--5--8--5-----------------|--5--5--8--5----3--4---------|--5--5--8--5-----------------||

Other versions of Time Is Running Out

Time is running out (Ver. 2)Bass tabs

Almost there ...

Sign in to get your own page with links to favourite songs and more. You are just one click away...

Login with Facebook Login with Google