Log in

One click and you are in

Login with Facebook Login with Google

Why sign up and log in

Guitar Tabs Explorer
Muse tabs for The small print

Guitar tabs

"The Small Print" by Muse
>From the album "Absolution"
Tabbed by Gavin
This is all my own work.

Drop A chord diagramD MajorD tuning (DADGBE)

Matts whammy pedal is set 1 octave down for this song

INTRO RIFF

e------------------
B------------------
G----------7-------
D------------------   x12
A--8-9-8-9---9-8-9-
D------------------


VERSE RIFF

e--------------------------------------------------------------
B--------------------------------------------------------------
G--------------------------------------------------------------
D--------------------------------------------------------------
A--5-5-5-5-5-5-7-7-9-9-9-9-10-10-12-12-14-14-14-14-14-14-16-14-
D--------------------------------------------------------------


e-----------------------------
B-----------------------------
G-----------------------------
D-----------------------------
A--14-14-14-16-14-13-13-13-13-
D-----------------------------

e--------------------------------------------------------------
B--------------------------------------------------------------
G--------------------------------------------------------------
D--------------------------------------------------------------
A--5-5-5-5-5-5-7-7-9-9-9-9-10-10-12-12-14-14-14-14-14-14-16-14-
D--------------------------------------------------------------


e--------------------------
B--------------------------
G--------------------------
D--------------------------
A--14-14-14-16-14-13^13^13-
D--------------------------


Repeat INTRO RIFF x4


CHORUS


e-------------------------------------------------------------
B-------------------------------------------------------------
G-------------------------------------------------------------
D--9--9-9-9-9-4-4-4-4-4-4-4-4-0-0-0-0-0-0-0-0-4-4-4-4-4-4-4-4-
A--9--9-9-9-9-4-4-4-4-4-4-4-4-0-0-0-0-0-0-0-0-4-4-4-4-4-4-4-4- x2
D--9--9-9-9-9-4-4-4-4-4-4-4-4-0-0-0-0-0-0-0-0-4-4-4-4-4-4-4-4-
     [-----------------------palm mute-----------------------]


e----------------------------------------------------------------------
B--8-8-8---------------------------------------------------------------
G--9-9-9---------------------------------------------------------------
D--9-9-9-11-11-11-9--9-9-9-9-0-0-0-0-0-0-0-0-4-4-4-4-4-4-4-4-4-4-4-4-4-
A--7-7-7-9--9--9--9--9-9-9-9-0-0-0-0-0-0-0-0-4-4-4-4-4-4-4-4-4-4-4-4-4-
D-----------------9--9-9-9-9-0-0-0-0-0-0-0-0-4-4-4-4-4-4-4-4-4-4-4-4-4-
                    [---------------------palm mute-------------------]


e---------------------------------------------------------------
B--8-8-8---------7-7-7-7----------------------------------------
G--9-9-9---------7-7-7-7-------------------------14-------------
D--9-9-9-7-7-7-7-7-7-7-7-11-11-11-11-12-12-12-12-12-15-15-15-15-
A--7-7-7-7-7-7-7-5-5-5-5-9--9--9--9--10-10-10-10-10-13-13-13-13-
D--------7-7-7-7------------------------------------------------


SOLO TYPE THING


                 whammy up
e---------------7~~~~~~~~~---------------------------------------
B-------------------------7-7-7-8-8-8-10-10-10-12~~~~~~~~~~11~~~~
G----------------------------------------------------------------
D----------------------------------------------------------------
A--2~~~~~~~~~~~--------------------------------------------------
D----------------------------------------------------------------
   whammy down


Repeat VERSE RIFF

Repeat CHORUS

Repeat INTRO RIFF x8
(With random strumming and whammy up/down in background)

Repeat CHORUS
(As before but this time with no palm muting)


END

e------
B------
G------
D--9\0-
A--9\0-
D--9\0-


___________________________________________________

Almost there ...

Sign in to get your own page with links to favourite songs and more. You are just one click away...

Login with Facebook Login with Google