Log in

One click and you are in

Login with Facebook Login with Google

Why sign up and log in

Guitar Tabs Explorer
Muse tabs for Stockholm syndrome

Guitar tabs

"Stockholm Syndrome" by Muse
>From the album "Absolution"
Tabbed by Gavin
This. Is. All. My. Own. Work.

Drop A chord diagramD MajorD tuning (DADGBE)

For anyone who doesn't know what harmonics are, just touch the string
very lightly above the indicated fret (without pushing it against the
fretboard) and strum with loads of overdrive to get that, er, squeaky
chiming noise is the best i can describe it...
e----------------------------------------------------------------
B----------------------------------------------------------------
G----------------------------------------------------------------
D----------------------------------------------------------4h5p4-
A--5-5-6-6-5-5-3-3-5-5-6-6-5-5-3-3-5-5-6-6-5-5-3-3-5-5-6-6-------
D----------------------------------------------------------------


e--------------------------------------------------------
B--------------------------------------------------------
G--------------------------------------------------------
D--------------------------------------------------------
A--5-5-6-6-5-5-3-3-5-5-6-6-5-5-3-3-5-3-3-3-3-3--3-3--3-3-
D------------------------------------3-3-3-3-3--3-3--3-3-
                                    [-----harmonics-----]


e----------------------------------------------------------------
B----------------------------------------------------------------
G----------------------------------------------------------------
D----------------------------------------------------------4h5p4-    x4
A--5-5-6-6-5-5-3-3-5-5-6-6-5-5-3-3-5-5-6-6-5-5-3-3-5-5-6-6-------
D----------------------------------------------------------------


VERSE RIFF

e------------------------------------------------------------------
B------------------------------------------------------------------
G--7-7-7-7-7-7-7-7-5-5-5-5-5-5-5-5-4-4-4-4-4-4-4-4-3-3-3-3-3-3-3-3-
D------------------------------------------------------------------
A------------------------------------------------------------------
D------------------------------------------------------------------


e------------------------------------------------------------------
B------------------------------------------------------------------
G--7-7-7-7-7-7-7-7-6-6-6-6-6-6-6-6-5-5-5-5-5-5-5-5-7-7-7-7-7-7-7-7-
D------------------------------------------------------------------
A------------------------------------------------------------------
D------------------------------------------------------------------


e------------------------------------------------------------------
B--11-11-11-11-11-11-11-11-10-10-10-10-10-10-10-10-8-8-8-8-8-8-8-8-
G------------------------------------------------------------------
D------------------------------------------------------------------
A------------------------------------------------------------------
D------------------------------------------------------------------


e------------------------------------------------------------------
B--8-8-8-8-8-8-8-8-8-8-8-8-8-8-8-8-8-8-8-8-8-6-6-6-6-6-6-6-6-6-6-6-
G------------------------------------------------------------------
D------------------------------------------------------------------
A------------------------------------------------------------------
D------------------------------------------------------------------


PRECHORUS

e--------------------------------------------------
B--------------------------------------------------
G--------------------------------------------------
D--5--4--3-3-3-3-3-3-3-3-3-3-3-3-3-3-3-3-3-3-3-3-3-
A--5--4--3-3-3-3-3-3-3-3-3-3-3-3-3-3-3-3-3-3-3-3-3-
D--5--4--3-3-3-3-3-3-3-3-3-3-3-3-3-3-3-3-3-3-3-3-3-


CHORUS

e------------------1-1-1-1-1-1-1-1-----------------1-1-1-1-----------
B----------0-0-0-0-3-3-3-3-3-3-3-3---------0-0-0-0-3-3-3-3-3-3-3-3-3-
G----------2-2-2-2-2-2-2-2-2-2-2-2---------2-2-2-2-2-2-2-2-3-3-3-3-3-
D--3-3-3-3-2-2-2-2-0-0-0-0-0-0-0-0-3-3-3-3-2-2-2-2-0-0-0-0-3-3-3-3-3-
A--3-3-3-3-2-2-2-2-0-0-0-0-0-0-0-0-3-3-3-3-2-2-2-2-0-0-0-0-1-1-1-1-1-
D--3-3-3-3-x-x-x-x-----------------3-3-3-3-x-x-x-x-------------------


POSTCHORUS

e-------------------------------------------
B-------------------------------------------
G-----------------------------------5-5-6-6-
D--3-3-3-3-3--6-6-6-6-6--7-7-7-7-7--5-5-6-6-
A--3-3-3-3-3--6-6-6-6-6--7-7-7-7-7--3-3-4-4-
D--3-3-3-3-3--6-6-6-6-6--7-7-7-7-7----------


e---------------------------------------------------------
B---------------------------------------------------------
G---------------------------------------------------------
D---------------------------------------------------------
A--5-5-6-6-5-5-3-3-5-5-6-6-5-5-3-3-5-3-3-3--3-3--3-3--3-3-
D------------------------------------3-3-3--3-3--3-3--3-3-
                                    [------harmonics-----]



VERSE RIFF


PRECHORUS


CHORUS

POSTCHORUS


e----------------------------------------------------------------
B----------------------------------------------------------------
G----------------------------------------------------------------
D----------------------------------------------------------4h5p4-
A--5-5-6-6-5-5-3-3-5-5-6-6-5-5-3-3-5-5-6-6-5-5-3-3-5-5-6-6-------
D----------------------------------------------------------------


e--------------------------------------------------------
B--------------------------------------------------------
G--------------------------------------------------------
D--------------------------------------------------------
A--5-5-6-6-5-5-3-3-5-5-6-6-5-5-3-3-5-3-3-3-3-3--3-3--3-3-
D------------------------------------3-3-3-3-3--3-3--3-3-
                                    [-----harmonics-----]


e------------------
B------------------
G------------------
D------------------   x16
A--5-5-6-6-5-5-3-3-
D------------------


e--------------------------------------------------------------
B--------------------------------------------------------------
G--------------------------------------------------------------
D--8-8-5-5-0-0-8-8-5-5-0-0-8-8-5-7-7-3-3-0-0-7-7-3-3-0-0-7-7-3-
A--------------------------------------------------------------
D--------------------------------------------------------------


e--------------------------------------------------------------
B--------------------------------------------------------------
G--------------------------------------------------------------
D--5-5-2-2-0-0-5-5-2-2-0-0-5-5-2-5-5-1-1-0-0-5-5-1-1-0-0-5-5-1-
A--------------------------------------------------------------
D--------------------------------------------------------------


e------------------
B------------------
G------------------
D--7-7-8-8-7-7-5-5-   x6
A------------------
D------------------


e-------------------------------1-1-1-1-1-1-1-1-
B-----------------------0-0-0-0-3-3-3-3-3-3-3-3-
G-----------------------2-2-2-2-2-2-2-2-2-2-2-2-
D--3-3-3--5-4-3-3-3-3-3-2-2-2-2-0-0-0-0-0-0-0-0-
A--3-3-3--5-4-3-3-3-3-3-2-2-2-2-0-0-0-0-0-0-0-0-
D--3-3-3--5-4-3-3-3-3-3-x-x-x-x-----------------
 [harmon.]


e------------------1-1-1-1---------
B----------0-0-0-0-3-3-3-3-3-3-3-3-
G----------2-2-2-2-2-2-2-2-3-3-3-3-
D--3-3-3-3-2-2-2-2-0-0-0-0-3-3-3-3-
A--3-3-3-3-2-2-2-2-0-0-0-0-1-1-1-1-
D--3-3-3-3-x-x-x-x-----------------


e-----------------------------------------------
B-----------------------------------------------
G-----------------------------------------------
D--3-3-3-3-3--6-6-6-6-6--7-7-7-7-7--10-10-11-11-   x2
A--3-3-3-3-3--6-6-6-6-6--7-7-7-7-7--10-10-11-11-
D--3-3-3-3-3--6-6-6-6-6--7-7-7-7-7--10-10-11-11-



OUTRO

e-----------------------
B-----------------------
G-----------------------
D--0-0-13-0-12-12-10/12-   x3
A--0-0-13-0-12-12-10/12-
D--0-0-13-0-12-12-10/12-


e-------------------------
B-------------------------
G-------------------------
D--0-0-13-0-1/12\1-1/12\1-
A--0-0-13-0-1/12\1-1/12\1-
D--0-0-13-0-1/12\1-1/12\1-


e-----------------------        ------
B-----------------------        ------
G-----------------------        ------
D--0-0-13-0-12-12-10/12-   x4   ----0-   let ring
A--0-0-13-0-12-12-10/12-        ----0-
D--0-0-13-0-12-12-10/12-        ----0-


___________________________________________________

Other versions of Stockholm Syndrome

Stockholm syndromeChords

Almost there ...

Sign in to get your own page with links to favourite songs and more. You are just one click away...

Login with Facebook Login with Google