Soldier S Poem by Muse

Soldier S Poem tab by Muse

Guitar tabs

Soldier's Poem - Muse


Hi. After seeing many incorrect tabs of "Soldier's Poem" by Muse, I
decided to sit down and figure it out myself. There are a lot of parts
on the record where the bass and guitar harmonize, and one clearly stands
out. So,while this may not be the exact transcription of the guitar
part on the recording, it's as close as you can get with one guitar.

Enjoy!

Standard tuning, no capo.




Part A:




    D     D/A

-------2----------------------|
-----3---3----------3-----3---|
---2-------2------2-----2-----|  X2
-0-----------0----------------|
----------------0-----0-------|
------------------------------|

    D            A

-------2-----------2--------------------------------------|
-----3---3-------3---3---------2-----------2--------------|
---2-------2---2-------2-----2---2-------2---2------------|
-0-----------0-------------2-------2---2-------2----------|
-------------------------0-----------0--------------------|
----------------------------------------------------------|
 Threw          it all

    G      Gm     D      F#

-------3-----------3-----------2--------------------------|
-----3---3-------3---3-------3---3---------2--------------|
---4-------4---3-------3---2-------2-----3---3------------|
-------------------------0-------------4-------4----------|
----------------------------------------------------------|
-3-----------3-----------------------2--------------------|
 away         let's  lose  ourselves cause there's

    Bm           Em

----------------------------------------------------------|
-------3-----------3-----------0------------0-------------|
-----4---4-------4---4-------0---0--------0---0-----------|
---4-------4---4-------4---2-------2----2-------2---------|
-2-----------2--------------------------------------------|
-------------------------0------------0-------------------|
 no     one     left     for us to

 Em (2nd inv.)  B7   Em (2nd inv.)   A7

-------3-----------5-----------3-----------3--------------|
-----------------4---4-------------------2---2------------|
-----4---4-----4-------4-----4---4-----2-------2----------|
---2-------2---------------2-------2----------------------|
-2-----------2-----------2-----------0--------------------|
----------------------------------------------------------|
 blame it's a shame we're all dying          and if

    A

-------0--------------------------------------------------|
-----2---2---------2-----------2-----------2--------------|
---2-------2-----2---2-------2---2-------2---2------------|
---------------2-------2---2-------2---2-------2----------|
-0-----------0-----------0-----------0--------------------|
----------------------------------------------------------|
 you     think you  deserve your freedom


Repeat Part A for the following lyrics:

How could you send
us all far away from home
when you know damn well
that this is all
I would still lay down my life for you and do
you think you deserve your freedom




Part B:




    D     Bm     D/A     Dsus2/C#

-------2-----------------------2-----------0--------------|
-----3---3---------3---------3---3-------3---3------------|
---2-------2-----4---4-----2-------2---2-------2----------|
-0-------------4-------4----------------------------------|
-------------2-----------0-----------4--------------------|
----------------------------------------------------------|
 No        I don't think        you

    Bm           G

-------------------------------------------3--------------|
-------3-----------3-----------3---------3---3------------|
-----4---4-------4---4-------4---4-----4-------4----------|
---4-------4---4-------4---5-------5----------------------|
-2-----------2--------------------------------------------|
-------------------------3-----------3--------------------|
 do           there's no justice

    G     Gm      D      D/F#

-------3-----------3-----------2-----------2--------------|
-----3---3-------3---3-------3---3-------3---3------------|
---4-------4---3-------3---2-------2---2-------2----------|
-5-----------5-----------0--------------------------------|
----------------------------------------------------------|
-------------------------------------2--------------------|
 in         the world        there's no

    G           A

----------------------------------------------------------|
-------3-----------3-----------2-----------2--------------|
-----4---4-------4---4-------2---2-------2---2------------|
---5-------5---5-------5---2-------2---2-------2----------|
-------------------------0-----------0--------------------|
-3-----------3--------------------------------------------|
 justice    in the  world     and there never



    D     D/A        D    D/A     D

-------2---------------------------2--------------------2-|
-----3---3----------3-----3------3---3----------3-----3-3-|
---2-------2------2-----2------2-------2------2-----2---2-|
-0-----------0---------------0-----------0--------------0-|
----------------0-----0---------------------0-----0-------|
----------------------------------------------------------|
 was


Please send comments and questions to livodl@charter.net

Thanks! :)

Find guitar tabs and chords

A B C D E F G H I J K L M N O P Q R S T U V W X Y Z #