Log in

One click and you are in

Login with Facebook Login with Google

Why sign up and log in

Guitar Tabs Explorer
Muse tabs for Sing4 live

Guitar tabs

Sing4 Live - Capo 2nd


Intro

F#:------------------x2
C#:-----3------3---5-x2
A-:---4--4-4---------x2
E-:--4-4--4---5-5-4--x2
B-:-2--------2---2---x2
F#:------------------x2

F#:------------------x2
C#:-----3------3---5-x2
A-:---4--4-4---------x2
E-:--4-4--4---5-5-4--x2
B-:------------------x2
F#:-3--------3---3---x2

F#:---------------x2
C#:-2-2------3----x2
A-:--------4------x2
E-:------3--------x2
B-:-4-4-4-4-4-----x2
F#:---------------x2

F#:-------------x2
C#:-2-2------3--x2
A-:--------3----x2
E-:------2------x2
B-:-------------x2
F#:-2-2-2-2-2---x2


Verse Chords = C#m,A,Eb,G#7

A chord diagramEb MajorEb
F#:-x
C#:-2
A-:-1
E-:-3
B-:-4
F#:-x

Chords = B,F#
F#:-------------------------------------0---------0-----------etc
C#:-----------2--------2-------2---------2---------0------0---etc
A-:---------2--2-----2--2-2--2--2-2---2---2-----0---0---0--0--etc
E-:--------2-2--2---2-2--2--2-2--2---2-2---2---2-2---2-2-2--2-etc
B-:-------0------0-0-------0--------0-------0---------2------2etc
F#:-22-44-------------------------------------0---------------etc

Bridge
F#:-------------------------------------------------------------------------------------------
C#:-------------------------------------------------------------------------------------------
A-:-4444444444446677-4444444444-4466771010101010-1313131313-151515-16161616-131313-1515151515-
E-:-xxxxxxxxxxxxxxxx-5555555555-xxxxxxxxxxxxxxxx-xxxxxxxxxx-xxxxxx-xxxxxxxx-xxxxxx-xxxxxxxxxx-
B-:-2222222222224455-5555555555-2244558888888888-1111111111-131313-14141414-111111-1313131313-
F#:------------------3333333333---------------------------------------------------------------

Last Chours
F#:---------------------------------------------------:--------------------:----------------
C#:---------------------------------------------------:-First Time---------:----------------
A-:-66666666666-9999-1111-121212121212-111111-12121212:-1111-9999-66666666-:-14141414141414-
E-:-xxxxxxxxxxx-xxxx-xxxx-xxxxxxxxxxxx-xxxxxx-xxxxxxxx:-xxxx-xxxx-xxxxxxxx-:-xxxxxxxxxxxxxx-
B-:-44444444444-7777-9999-101010101010-999999-10101010:-9999-7777-44444444-:-13131313131313-
F#:---------------------------------------------------:--------------------:----------------

Section after last chours chord progression (with parts of the brige sneaked in, mess with it)

C#m,A,Eb,G#7

The A chord diagramEb MajorEb is played

F#:-x
C#:-2
A-:-1
E-:-3
B-:-4
F#:-x


Ending lick
F#:--------------------------------------------------------
C#:--------------------------------------------------------
A-:-4~4~4~4~4~4~4~4~-2-2-4-2(bu3)--------------------------
E-:------------------------------4~--4h5-5~-4-2h4p2--------
B-:-------------------------------------------------5-4-2~-
F#:--------------------------------------------------------

Almost there ...

Sign in to get your own page with links to favourite songs and more. You are just one click away...

Login with Facebook Login with Google