Log in

One click and you are in

Login with Facebook Login with Google

Why sign up and log in

Guitar Tabs Explorer
Muse tabs for Plug in baby

Guitar tabs

Title: Plug-in-Baby
                   Album: Origin of Symmetry

This is  correction of the original
tab of one of Muse' best songs.
A chord diagramA augmentedA great live version of this song
is on the New Born single version two.



------------------------------------------------------------------------------
-------------------------7h8p7---------------------------7-7h8p7-5h7p5--------
-------6-----6-7---6-7-9-------9-7-6---6-7---6-7-9-6-7-9----------------------
--8--9---8-9-----9-------------------9-----9----------------------------------
------------------------------------------------------------------------------
------------------------------------------------------------------------------


------------------------------------------------------------------------------
--7-----------7-9b10r9-7---7--------------------------------------------------
----7-------7------------9---7-6-7--------------------------------------------
------7---7-------------------------------------------------------------------
--------9---------------------------------------------------------------------

                   When Matt'singing starts to become
high pitched near the end you play:


----------------------0-2h3r2-------------------0-------0-2h3p2-1-2-1---------

----0-2---0-2-3-0-2-3---------3-2-0-0-2-3-0-3-2---0-3-2-----------------------

--3-----3---------------------------------------------------------------------

------------------------------------------------------------------------------

------------------------------------------------------------------------------

------------------------------------------------------------------------------


--3-----------3-4b6r4-3-2-----------------------------------------------------

----2-------2-------------3-2-------------------------------------------------

------3---3-------------------------------------------------------------------

--------4---------------------------------------------------------------------

------------------------------------------------------------------------------

------------------------------------------------------------------------------
                   Then go back to the original riff.
The chords for the chorus are:


--3-3-3-3-----2-2-2-2-----3-3-3-3-----2-2-2-2-----3-3-3-3-----2-2-2-2---------

--3-3-3-3-----3-3-3-3-----3-3-3-3-----3-3-3-3-----3-3-3-3-----3-3-3-3---------

--4-4-4-4-x4--4-4-4-4-x4--4-4-4-4-x4--4-4-4-4-x4--4-4-4-4-x4--4-4-4-4-x4------

--5-5-5-5-----4-4-4-4-----5-5-5-5-----4-4-4-4-----5-5-5-5-----4-4-4-4---------

--5-5-5-5-----2-2-2-2-----5-5-5-5-----2-2-2-2-----5-5-5-5-----2-2-2-2---------

--3-3-3-3-----x-x-x-x-----3-3-3-3-----x-x-x-x-----3-3-3-3-----x-x-x-x---------


--3-3-3-3-----3-3-3-3---------------------------------------------------------

--3-3-3-3-----2-2-2-2---------------------------------------------------------

--4-4-4-4-x4--3-3-3-3-x4------------------------------------------------------

--5-5-5-5-----0-0-0-0---------------------------------------------------------

--5-5-5-5-----0-0-0-0---------------------------------------------------------

--3-3-3-3-----x-x-x-x---------------------------------------------------------
                                          This is all my own work ya.

Other versions of Plug In Baby

Plug in BabyChords
Plug in Baby (Ver. 2)Tabs

Almost there ...

Sign in to get your own page with links to favourite songs and more. You are just one click away...

Login with Facebook Login with Google