Log in

One click and you are in

Login with Facebook Login with Google

Why sign up and log in

Guitar Tabs Explorer
Muse tabs for Micro-cuts

Guitar tabs

Album:Origin Of Symettry
Tabbed by:pid_182@yahoo.co.uk (Tom Piddock)


Intro and verse:
E-----5-------10-----------------------13----11----10
B---6--6-6--8---8-8--10-----10-----11----11----11----
G--7-7--7--9-9---9-10--10-11--11-12--12----12----12--
D----------------------------------------------------
A----------------------------------------------------
D----------------------------------------------------
E--------10------------12
B--11--------------------
G-----10----10-----10----
D----0--0--0--0--11------      some of those notes
need repeated but hey you can figure it out.


Chorus:
E--------
B--3--3--
G-----2--
D--5--0--
A--5--0--
D--5--0-- those chords and on the last part go

E---------
B------3/2
G------2--
D--5-6-2--
A--5-6-0--
D--5-6-0--

to be quite honest i have no idea what matt bellamy
does after the second chorus so just make noise.


Ending part:
E--------------------------------------
B--------------------------------------
G--------------------------------------
D--12-11-10-7-6-5-3-0-3-0-5-6-7-0-10-11
A--12-11-10-7-6-5-3-0-3-0-5-6-7-0-10-11
D--12-11-10-7-6-5-3-0-3-0-5-6-7-0-10-11 x2

bass joins in and then:

E-----------------
B-----------------
G-----------------
D-----------------
A--5-4-3-0--------
D----------6-5-3-0

x4 and slide up to 10 before bass joins in.enjoy.

Almost there ...

Sign in to get your own page with links to favourite songs and more. You are just one click away...

Login with Facebook Login with Google