Log in

One click and you are in

Login with Facebook Login with Google

Why sign up and log in

Guitar Tabs Explorer
Muse tabs for Knights of cydonia

Guitar tabs

key:
> = strum down
< = strum up
/ = slide

Intro:
e------|-------|-------|-------|-----|-------|
B------|-------|-------|-------|-----|-------|
G------|-------|-------|-------|-----|-------|
D2-----|xx4----|xx5----|xx7----|7----|xx9----|
A2-----|xx4----|xx5----|xx7----|7----|xx9----|
E0-----|xx2----|xx3----|xx5----|5----|xx7----|

e------|-------|-------|-------|-----|-------|
B------|-------|-------|-------|-----|-------|
G------|-------|-------|-------|-----|-------|
D2-----|xx4----|xx5----|xx7----|7----|xx9----|
A2-----|xx4----|xx5----|xx7----|7----|xx9----|
E0-----|xx2----|xx3----|xx5----|5----|xx7----|

Intro 2:
strum as fast as you can
e-----------------------|-----------------------|
B-----------------------|-----------------------|
G-----------------------|-----------------------|
D-----------------------|-----------------------|
A7777755-77-999999-77-99|101010-9999-101010-1212|
E-----------------------|-----------------------|

e-----------------------------------------------|
B-----------------------------------------------|
G-----------------------------------------------|
D-----------------------------------------------|
A12-101010-999-10101010-9999-777777-666666666666|
E-----------------------------------------------|

e-----------------------|-----------------------|
B-----------------------|-----------------------|
G-----------------------|-----------------------|
D-----------------------|-----------------------|
A7777755-77-999999-77-99|101010-9999-101010-1212|
E-----------------------|-----------------------|

e-----------------------------------------------|
B-----------------------------------------------|
G-----------------------------------------------|
D-----------------------------------------------|
A12-101010-999-10101010-9999-777777-666666666666|
E-----------------------------------------------|

e----|
B----|
G----|
D---2|
A19/2|
E---0|

Intro 3:
wammy like crazy!!!!!!!!!!!!!!
e--------|--------|--------|--------|--------|
B--------|--------|--------|--------|--------|
G--------|--------|--------|--------|--------|
D5~~~4~2~|0~~~2~4~|5~~~4~2~|--------|1~~~2~4~|
A--------|--------|--------|5b~~~~~~|--------|
E--------|--------|--------|--------|--------|

e--------|--------|--------|--------|--------|
B--------|--------|--------|--------|--------|
G--------|--------|--------|8~~~5~--|7~~~5~7~|
D2~~~5~7~|8~~~7~8~|9~~~~~~~|------5~|--------|
A--------|--------|--------|--------|--------|
E--------|--------|--------|--------|--------|

e--------|--------|--------|--------|--------|
B--------|--------|--------|--------|--------|
G8~~~7~5~|3~~~~~--|7~~~5~3~|5~~~3~1~|3~~~~~~~|
D--------|--------|--------|--------|--------|
A--------|--------|--------|--------|--------|
E--------|--------|--------|--------|--------|

e--------|--------|---------------|
B--------|--------|---------------|
G4~~~~~~~|5b~~~~~~|keep holding it|
D--------|--------|---------------|
A--------|--------|---------------|
E--------|--------|---------------|

e19191919191919-1616161616161616----------|
B-------------------------------1616161616|
G-----------------------------------------|
D-----------------------------------------|
A-----------------------------------------|
E-2nd fast part---------------------------|

e18181818181818|191919191919-181818181818-161616|
B--------------|--------------------------------|
G--------------|--------------------------------|
D--------------|--------------------------------|
A--------------|--------------------------------|
E--------------|--------------------------------|

e14141414141414|1818181818-161616161616-14141414|
B--------------|--------------------------------|
G--------------|--------------------------------|
D--------------|--------------------------------|
A--------------|--------------------------------|
E--------------|--------------------------------|

e16161616161616-141414141414-12121212121212|
B------------------------------------------|
G------------------------------------------|
D------------------------------------------|
A------------------------------------------|
E------------------------------------------|

e141414141414141414|151515151515151515|16~~~|
B------------------|------------------|-----|
G------------------|------------------|-----|
D------------------|------------------|-----|
A------------------|------------------|-----|
E------------------|------------------|-----|

e------------|-----------|--------|
B------------|-----------|--------|
G-4-4-4-4-6-6|6-6-6-6-4-4|3~~~----|
D------------|-----------|--------|
A------------|-----------|--------|
E------------|-----------|--------|

e-7~~~~~-|----|----|7~~~|7~~~|7-------|
B-7~~~~~-|8~~~|9~~~|8~~~|7~~~|-8------|
G-8~~~~~-|----|----|7~~~|8~~~|--9~~~~~|
D-9~~~~~-|----|----|9~~~|9~~~|--------|
A-9~~~~~-|----|----|10~~|9~~~|--------|
E-7~~~~~-|----|----|7~~~|7~~~|--------|
  <                 <    <

e7-------|--8~~~--|7~~~|7~~~|8~~~|7~~~|7~~~|
B-7------|-8-----8|8~~~|7~~~|8~~~|8~~~|8~~~|
G--8~~~~~|9-----7-|7~~~|8~~~|9~~~|7~~~|9~~~|
D--------|--------|9~~~|9~~~|10~~|9~~~|9~~~|
A--------|--------|10~~|9~~~|10~~|10~~|7~~~|
E--------|--------|7~~~|7~~~|8~~~|7~~~|7~~~|
                   >    <    <    >    <

e7~~~|~~~~|~~~~|
B8~~~|~~~~|~~~~|
G9~~~|~~~~|~~~~|
D9~~~|~~~~|~~~~|
A7~~~|~~~~|~~~~|
E7~~~|~~~~|~~~~|
 <

Intro 1 again:
e------|-------|-------|-------|-----|-------|
B------|-------|-------|-------|-----|-------|
G------|-------|-------|-------|-----|-------|
D2-----|xx4----|xx5----|xx7----|7----|xx9----|
A2-----|xx4----|xx5----|xx7----|7----|xx9----|
E0-----|xx2----|xx3----|xx5----|5----|xx7----|

e------|-------|-------|-------|-----|-------|
B------|-------|-------|-------|-----|-------|
G------|-------|-------|-------|-----|-------|
D2-----|xx4----|xx5----|xx7----|7----|xx9----|
A2-----|xx4----|xx5----|xx7----|7----|xx9----|
E0-----|xx2----|xx3----|xx5----|5----|xx7----|


Intro 2 again:
e------------------|----------------------------|
B------------------|----------------------------|
G------------------|----------------------------|
D------------------|----------------------------|
A7777755-77-999999-77-99|101010-9999-101010-1212|
E------------------|----------------------------|

e-----------------------------------------------|
B-----------------------------------------------|
G-----------------------------------------------|
D-----------------------------------------------|
A12-101010-999-10101010-9999-777777-666666666666|
E-----------------------------------------------|

e------------------|----------------------------|
B------------------|----------------------------|
G------------------|----------------------------|
D------------------|----------------------------|
A7777755-77-999999-77-99|101010-9999-101010-1212|
E------------------|----------------------------|

e-----------------------------------------------|
B-----------------------------------------------|
G-----------------------------------------------|
D-----------------------------------------------|
A12-101010-999-10101010-9999-777777-666666666666|
E-----------------------------------------------|

e23/0|0~~~|~~~~|
B23/0|0~~~|~~~~|
G----|0~~~|~~~~|
D----|2~~~|~~~~|
A----|2~~~|~~~~|
E----|0~~~|~~~~|

weird descending notes
e------------ |-------------|------------|
B------------ |-------------|------------|
G9--9--9--9-- |9--9--9--9-- |7--7--7--7--|
D-9--9--9--9- |-9--9--9--9- |-9--9--9--9-|
A--10-10-10-10|--10-10-10-10|--9--9--9--9|
E------------ |------------ |------------|

e------------|------------|------------|
B------------|------------|------------|
G7--7--7--7--|6--6--6--6--|6--6--6--6--|
D-9--9--9--9-|-7--7--7--7-|-7--7--7--7-|
A--9--9--9--9|--7--7--7--7|--7--7--7--7|
E------------|------------|------------|

e------------ |------------ |------------ |
B------------ |------------ |------------ |
G9--9--9--9-- |9--9--9--9-- |9--9--9--9-- |
D-9--9--9--9- |-9--9--9--9- |-9--9--9--9- |
A--10-10-10-10|--10-10-10-10|--10-10-10-10|
E------------ |------------ |------------ |

e------------ |------------|------------|
B------------ |------------|------------|
G9--9--9--9-- |7--7--7--7--|7--7--7--7--|
D-9--9--9--9- |-9--9--9--9-|-9--9--9--9-|
A--10-10-10-10|--9--9--9--9|--9--9--9--9|
E------------ |------------|------------|

e------------|------------|
B------------|------------|
G6--6--6--6--|6--6--6--6--|
D-7--7--7--7-|-7--7--7--7-|
A--7--7--7--7|--7--7--7--7|
E------------|------------|

e------------|------------|
B------------|------------|
G999999999999|999999999999|
D999999999999|999999999999|
A777777777777|777777777777|
E------------|------------|

e------------|------------|------------|
B------------|------------|------------|
G------------|------------|------------|
D------------|---------5--|------------|
A5777-75777-7|5777-7577-77|5-----5-----|
E------------|------------|-777-7-777-7|

e------------|------------|------------|
B------------|------------|------------|
G------------|------------|------------|
D------------|------------|------------|
A5-----5--577|7000-07000-0|7000-0700---|
E-777-7-77---|------------|---------765|

e------------|------------|------------|
B------------|------------|------------|
G------------|------------|------------|
D------------|------------|------------|
A------------|------------|5777-75777-7|
E3000-03000-0|3000-0300567|------------|

e------------|------------|------------|
B------------|------------|------------|
G------------|------------|------------|
D---------5--|------------|------------|
A5777-7577-77|5-----5-----|5-----5--577|
E------------|-777-7-777-7|-777-7-77---|

e------------|------------|------------|
B------------|------------|------------|
G------------|------------|------------|
D------------|------------|------------|
A7000-07000-0|7000-0700---|------------|
E------------|---------765|3000-0300567|

e------------|------------|------------|
B------------|------------|------------|
G------------|------------|------------|
D------------|---------5--|------------|
A5777-75777-7|5777-7577-77|5-----5-----|
E------------|------------|-777-7-777-7|

e------------|------------|------------|
B------------|------------|------------|
G------------|------------|------------|
D------------|------------|------------|
A5-----5--577|7000-07000-0|7000-0700---|
E-777-7-77---|------------|---------765|

e------------|------------|------------|
B------------|------------|------------|
G------------|------------|------------|
D------------|------------|------------|
A------------|------------|5777-75777-7|
E3000-03000-0|3000-0300567|------------|

e------------|------------|------------|
B------------|------------|------------|
G------------|------------|------------|
D---------5--|------------|------------|
A5777-7577-77|5-----5-----|5-----5--577|
E------------|-777-7-777-7|-777-7-77---|

e------------|------------|------------|
B------------|------------|------------|
G------------|------------|------------|
D------------|------------|------------|
A7000-07000-0|7000-0700---|------------|
E------------|---------765|3000-03000-0|

e------------|------------|------------|
B------------|------------|------------|
G------------|------------|------------|
D------------|------------|---------5--|
A------------|5777-75777-7|5777-7577-77|
E3000-0300567|------------|------------|

e------------|------------|------------|
B------------|------------|------------|
G------------|------------|------------|
D------------|------------|------------|
A5-----5-----|5-----5--577|7000-07000-0|
E-777-7-777-7|-777-7-77---|------------|

e------------|------------|------------|
B------------|------------|------------|
G------------|------------|------------|
D------------|------------|------------|
A7000-0700---|------------|------------|
E---------765|3000-03000-0|3000-0300567|

e------------|------------|------------|
B------------|------------|------------|
G------------|------------|------------|
D------------|---------5--|------------|
A5777-75777-7|5777-7577-77|5-----5-----|
E------------|------------|-777-7-777-7|

e------------|------------|------------|
B------------|------------|------------|
G------------|------------|------------|
D------------|------------|------------|
A5-----5--577|7000-07000-0|7000-0700---|
E-777-7-77---|------------|---------765|

e------------|------------|------------|
B------------|------------|------------|
G------------|------------|------------|
D------------|------------|------------|
A------------|------------|------------|
E3000-03000-0|3000-0300567|3000-03000-0|

e------------|------------|------------|
B------------|------------|------------|
G------------|------------|------------|
D------------|------------|------------|
A------------|------------|------577577|
E3000-0300567|3000-03000-0|3000-0------|

e------------|------------|------------|
B------------|------------|------------|
G------------|------------|------------|
D------------|------------|------------|
A------------|------------|------------|
E3000-03000-0|3000-0300567|3000-03000-0|

e------------|----|----|----|
B------------|----|----|----|
G------------|----|----|----|
D------------|----|----|----|
A------577577|----|----|----|
E3000-0------|0~~~|~~~~|~~~~|

Other versions of Knights Of Cydonia

Knights of cydoniaChords
Knights of cydonia ukuleleChords
Knights of cydonia (Ver. 2)Tabs
Knights of cydonia liveTabs

Almost there ...

Sign in to get your own page with links to favourite songs and more. You are just one click away...

Login with Facebook Login with Google