Log in

One click and you are in

Login with Facebook Login with Google

Why sign up and log in

Guitar Tabs Explorer
Muse bass tabs for Kill or be killed

Bass tabs

  • Difficulty: Intermediate
Tuning: BADG


Intro:

G|--------------------|
D|--------------------|
A|--------------------|
B|-10-9-8-10-9-8-9-8--| x4


Start with the Snare

G|------------------------------------------------------------------|
D|-9---9---9---9---9---9---9---9------------------------------------|
A|-------------------------------5-5-5-5-5-5-5-5-12-12-12-12-12\----|
B|------------------------------------------------------------------|


Bridge:

G|------------------------------------------------|
D|------------------------------------------------|
A|-------------------------5---5-----12---12------|
B|-12-0-12-0---12-0-12-0-----3---3-------10---10--| x2




Verse :

G|-----------------------------------------------------------------|
D|-9---9-----------9---9-----------9---9-----------9---9-----------|
A|---------7-9-7-9---------7-9-7-9---------7-9-7-9---------7-9-7-9-|
B|---0---0-----------0---0-----------0---0-----------0---0---------|

G|-----------------------------------------------------------------|
D|-9---9-----------9---9-------------------------------------------|
A|---------7-9-7-9---------7-9-7-9---------------------------------|
B|---0---0-----------0---0---------12-0-12\--------12-0-12\--------| x2


Pre-Chorus:

G|--------------------------------|
D|--------------------------------|
A|-7x16-5x16-9x16-7x16-10x32-9x24-|
B|--------------------------------|


Chorus:

G|-----------------|   G|-------------------------------|
D|-----------------|   D|-------------------------------|
A|-----------------|   A|-------------------------------|
B|-3-3-----8-8-----| x3  B|-3-3-----8-8-10-9-8-10-9-8-9-8-|


Bridge:

G|------------------------------------------------|
D|------------------------------------------------|
A|-------------------------5---5-----12---12------|
B|-12-0-12-0---12-0-12-0-----3---3-------10---10--|




Verse :

G|-----------------------------------------------------------------|
D|-9---9-----------9---9-----------9---9-----------9---9-----------|
A|---------7-9-7-9---------7-9-7-9---------7-9-7-9---------7-9-7-9-|
B|---0---0-----------0---0-----------0---0-----------0---0---------|

G|-----------------------------------------------------------------|
D|-9---9-----------9---9-------------------------------------------|
A|---------7-9-7-9---------7-9-7-9---------------------------------|
B|---0---0-----------0---0---------12-0-12\--------12-0-12\--------|


Pre-Chorus:

G|--------------------------------|
D|--------------------------------|
A|-7x16-5x16-9x16-7x16-10x32-9x24-|
B|--------------------------------|


Chorus:

G|-----------------|   G|-------------------------------|
D|-----------------|   D|-------------------------------|
A|-----------------|   A|-------------------------------|
B|-3-3-----8-8-----| x3  B|-3-3-----8-8-10-9-8-10-9-8-9-8-|


Breakdown:

G|--------------------------------------------|
D|--------------------------------------------|
A|--------------------------------------------|
B|-0~----------------------10-9-8-10-9-8-9-8--| x2

G|-----------------|
D|-----------------|
A|-----------------|
B|-0-1-0-1-0-3-2-1-| x8

G|---------------------|
D|---------------------|
A|---------------------|
B|-0x16-2x16-3x16-4x16-|


Solo:

G|---------------------------------------------------------|
D|---------------------------------------------------------|
A|-----------7-5-----------5-3-----------9-7-----------7-5-|
B|-5-5-5-5-5-----3-3-3-3-3-----7-7-7-7-7-----5-5-5-5-5-----|

G|------------------------------------------------------------|
D|------------------------------------------------------------|
A|-----------10-8-----------10-8-----------9-7-9-9-9-9-9-9-9\-|
B|-8-8-8-8-8------8-8-8-8-8------7-7-7-7-7--------------------|


Chorus:

G|-----------------|   G|-------------------------------|
D|-----------------|   D|-------------------------------|
A|-----------------|   A|-------------------------------|
B|-3-3-----8-8-----| x3  B|-3-3-----8-8-10-9-8-10-9-8-9-8-|

G|-----------------|   G|-------------------------------|
D|-----------------|   D|-------------------------------|
A|-----/5------/10-|   A|-----/5------------------------|
B|-3-3-----8-8-----| x3  B|-3-3-----8-8-10-9-8-10-9-8-9-8-|


Intro2:

Start with the Snare

G|------------------------------------------------------------------|
D|-9---9---9---9---9---9---9---9------------------------------------|
A|-------------------------------5-5-5-5-5-5-5-5-12-12-12-12-12\----|
B|------------------------------------------------------------------|


Bridge:

G|------------------------------------------------|
D|------------------------------------------------|
A|-------------------------5---5-----12---12------|
B|-12-0-12-0---12-0-12-0-----3---3-------10---10--| x2


Outro:

G|-----------------|
D|-----------------|
A|-----/12~\-------|
B|-0~--------0~----| x2


************************************

| \ Slide down
| ~ Vibrato
| / Slide up


************************************
ⓘ Bass guitar tab for 'Kill Or Be Killed' by Muse, an alternative rock band formed in 1994 from Teignmouth, England. Muse is known for their rousing rock/pop music.

Almost there ...

Sign in to get your own page with links to favourite songs and more. You are just one click away...

Login with Facebook Login with Google