Log in

One click and you are in

Login with Facebook Login with Google

Why sign up and log in

Guitar Tabs Explorer
Muse tabs for Hysteria  solo

Guitar tabs

E-----------12--12----------13--13----------13--13--12--12------12--|---------12--12--
B-------------------------------------------------------------------|-----------------
G---14--14----------14--14----------14--14------------------14------|-13--13----------
D-------------------------------------------------------------------|-----------------
A-------------------------------------------------------------------|-----------------
E-------------------------------------------------------------------|-----------------
E-----------13--13----------13--13--12--12------12--|---------13--13----------17--17--
B---------------------------------------------------|---------------------------------
G---13--13----------13--13------------------13------|-14--14----------14--14----------
D---------------------------------------------------|---------------------------------
A---------------------------------------------------|---------------------------------
E---------------------------------------------------|---------------------------------


E-----------13--13----------12--12--|---------12--12----------13--13--17--17--13--13--
B-----------------------------------|-------------------------------------------------
G---14--14----------14--14----------|-14--14----------14--14--------------------------
D-----------------------------------|-------------------------------------------------
A-----------------------------------|-------------------------------------------------
E-----------------------------------|-------------------------------------------------


E-12--12------12--|---------12--12----------13--13----------13--13--12--12------12---|
B-----------------|------------------------------------------------------------------|
G---------14------|-14--14----------14--14----------14--14------------------14-------|
D-----------------|------------------------------------------------------------------|
A-----------------|------------------------------------------------------------------|
E-----------------|------------------------------------------------------------------|


E---------12----------13--13----------13--13--12--12------12--|---------13--13--------
B-------------------------------------------------------------|-----------------------
G-13--13------13--13----------13--13------------------13------|-14--14----------14--14
D-------------------------------------------------------------|-----------------------
A-------------------------------------------------------------|-----------------------
E-------------------------------------------------------------|-----------------------

E-17--17----------13--13----------12-----|-12-----------------------------------------
B----------------------------------------|-----------------15--------------13---------
G---------14--14----------14--14------0--|-----14--14--14-----------------------------
D----------------------------------------|---------------------15--15--15------14--14-
A----------------------------------------|--------------------------------------------
E----------------------------------------|--------------------------------------------


E---------------------|---------------------------------|-----------------------------
B-----12--------------|-13--------------0-13--12--10^12-|-12--------------0-12--12--13
G---------------------|-----12--------------------------|-----12----------------------
B-12------12--12--12--|---------14----------------------|---------12------------------
D---------------------|---------------------------------|-----------------------------
A---------------------|---------------------------------|-----------------------------


E----|------------------------------------|----------------------------------|--------
B-15-|--15------------15----15--13--12-13-|--13--------------0-15--13--12^13-|-13-----
G----|------14----------------------------|------14--------------------------|-----12-
D----|----------15------------------------|----------14----------------------|--------
A----|------------------------------------|----------------------------------|--------
E----|------------------------------------|----------------------------------|--------


E---------------------------|-----------------------------|---------------------------
B-----------12(13)12--10^12-|-12--------------0-12--13----|-(15)-----------------15---
G---------0-----------------|-----12----------------------|-----------12--------------
D-14------------------------|---------12------------------|--------------14-----------
A---------------------------|-----------------------------|---------------------------
E---------------------------|-----------------------------|---------------------------


E------------|-------------------------------|-|
B-13--12(13)-|--13---------------------------|-|
G------------|------14-----------------------|-|
D------------|----------14--14--------------|-|
A------------|-------------------------------|-|
E------------|-------------------------------|-|

Almost there ...

Sign in to get your own page with links to favourite songs and more. You are just one click away...

Login with Facebook Login with Google