Log in

One click and you are in

Login with Facebook Login with Google

Why sign up and log in

Guitar Tabs Explorer
Muse tabs for Exo politics

Guitar tabs

Exo-Politics Guitar Tab
Standard Tuning
Distortion, or Overdrive pedal required
/= Slide
1/2 = First half
2/2 = Second half


Intro/Verse (Works for Bass too)
|---------------------------|
|5-5-5-3-5-7-8-8-7/8 -5-3| 4x
|---------------------------|
|---------------------------|
|---------------------------|
|---------------------------|

|6-6-6-5-6-81-1-1-0-1-3-5-5-5-3-5------------5|
|------------------------------------3-5-5-3-5-3-|
|--------------------------------------------------|
|--------------------------------------------------|
|--------------------------------------------------|
|--------------------------------------------------|

|6-6-6-5-6-8-1-1-1-0-1-3-5-5-5-3-5-6-5-5-6-5-3-5----|
|-------------------------------------------------------3-5|
|-----------------------------------------------------------|
|-----------------------------------------------------------|
|-----------------------------------------------------------|
|-----------------------------------------------------------|


Chorus
|----------------------------------------------------------------------------|
|5-5-5-5-5-5-5-5-5-5-5-5-3-3-3-3-3-3-3-3-3-3-3-3-8--8---8--8---8--8|
|7-7-7-7-7-7-7-7-7-7-7-7-5-5-5-5-5-5-5-5-5-5-5-5-10-10-10-10-10-10|
|7-7-7-7-7-7-7-7-7-7-7-7-5-5-5-5-5-5-5-5-5-5-5-5-10-10-10-10-10-10|
|7-7-7-7-7-7-7-7-7-7-7-7-5-5-5-5-5-5-5-5-5-5-5-5-10-10-10-10-10-10|
|-----------------------------------------------------------------------------|

2X

In between those (Works with Bass too)
|-5-5-5-3-5-8-5-5-3-1-0-1-3|
|------------------------------|
|------------------------------|
|------------------------------|
|------------------------------|
|------------------------------|


Chorus part 2

1/2
|6-6-6-6-6-6-6-6-1-1-1-1-1-1-1-1-5-5-5-5-5-5-5-5------------------|
|9-9-9-9-9-9-9-9-3-3-3-3-3-3-3-3-7-7-7-7-7-7-7-7-5-5-5-5-3-3-3-3|
|--------------------------------------------------------7-7-7-7-5-5-5-5|
|-------------------------------------------------------------------------|
|-------------------------------------------------------------------------|
|-------------------------------------------------------------------------|
2/2
|6-6-6-6-6-6-6-6-1-1-1-1-1-1-1-1-5-5-5-5-5-5-5-5-5-5-5-5-5-5-5-5|
|9-9-9-9-9-9-9-9-3-3-3-3-3-3-3-3-7-7-7-7-7-7-7-7-7-7-7-7-7-7-7-7|
|--------------------------------------------------------------------------|
|--------------------------------------------------------------------------|
|--------------------------------------------------------------------------|
|--------------------------------------------------------------------------|

I'm not writing out the solo, that's for you to find out yourself


Verse, Play beginning bit 2 times NOT 4!!


Chorus

(Play part two of chorus 2 times)


Outro is the same as intro

Except played twice

Good Luck!

If you're a good bass player, you'll figure that the bass tab is just the single note on the upmost string

You can listen to the song at
www.muse.mu
ⓘ Guitar tab for 'Exo Politics' by Muse, an alternative rock band formed in 1994 from Teignmouth, England. Muse is known for their rousing rock/pop music.

Almost there ...

Sign in to get your own page with links to favourite songs and more. You are just one click away...

Login with Facebook Login with Google