Log in

One click and you are in

Login with Facebook Login with Google

Why sign up and log in

Guitar Tabs Explorer
Muse bass tabs for Darkshines

Bass tabs with lyrics

Intro:

G|--------------|--------------|---------------|--------------|--------------|-------------|
D|--------------|--------------|---------------|--------------|--5-------5---|-------------|
A|-5-7-8--0-5-8-|-5-7-8--0-5-8-|-7h8r7---0-7---|-7h8r7---0-7--|----5-------5-|-8-5-----8-5-|
E|--------------|--------------|-------9-----9-|------9-----9-|------6-3-----|-----6-3-----|

G|-------------|-------------|
D|---7---7---7-|-------------|
A|-0---7---0---|-----4-----4-|
E|-------------|-5-7---0-5---|




Verse 1:

Passing by, you light              draw me in

G|---------------------------------------------------------------------------|
D|---------------------------------------------------------------------------|
A|---------------------------------------------------------------------------|
E|-5-5-----5-5-----5-5-----5-5-----3-3-----1-1-----0-0-----5 (ring)----------|

    So be mine                         and your innocence

G|------------------|--------------|---------------|--------------|--------------|-------------|
D|------------------|--------------|---------------|--------------|--5-------5---|-------------|
A|-12\-5-7-8--0-5-8-|-5-7-8--0-5-8-|-7h8r7---0-7---|-7h8r7---0-7--|----5-------5-|-8-5-----8-5-|
E|------------------|--------------|-------9-----9-|------9-----9-|------6-3-----|-----6-3-----|

  I will consume

G|-------------|-------------|
D|---7---7---7-|-------------|
A|-0---7---0---|-----4-----4-|
E|-------------|-5-7---0-5---|


Chorus:

  Dark shines           Bringing me down

G|------------------|------------------|------------------|------------------|
D|-0-0-0h5h7-0--/12-|-0-0-0h5h7-0--/12-|------------------|------------------|
A|------------------|------------------|-0-0-0h5h7-0--/12-|-0-0-0h5h7-0--/12-|
E|------------------|------------------|------------------|------------------|

  Making my heart feel sore      Cause it's good

G|-----------------|-----------------|------------------|------------------|
D|-----------------|-----------------|------------------|------------------|
A|-----3h5-5-------|-----6h8-8-------|-0-0-0h5h7-0--/12-|-0-0-0h5h7-0--/12-|
E|-3-3-------3-/12-|-6-6-------6-/12-|------------------|------------------|

Short solo:

G|--------------|--------------|---------------|--------------|--------------|-------------|
D|--------------|--------------|---------------|--------------|--5-------5---|-------------|
A|-5-7-8--0-5-8-|-5-7-8--0-5-8-|-7h8r7---0-7---|-7h8r7---0-7--|----5-------5-|-8-5-----8-5-|
E|--------------|--------------|-------9-----9-|------9-----9-|------6-3-----|-----6-3-----|

G|-------------|-------------|
D|---7---7---7-|-------------|
A|-0---7---0---|-----4-----4-|
E|-------------|-5-7---0-5---|


Verse 2:

  Hold your hands                your fears

G|---------------------------------------------------------------------------|
D|---------------------------------------------------------------------------|
A|---------------------------------------------------------------------------|
E|-5-5-----5-5-----5-5-----5-5-----3-3-----1-1-----0-0-----5 (ring)----------|

    So be mine                          innocence     I wi

G|------------------|--------------|---------------|--------------|--------------|-------------|
D|------------------|--------------|---------------|--------------|--5-------5---|-------------|
A|-12\-5-7-8--0-5-8-|-5-7-8--0-5-8-|-7h8r7---0-7---|-7h8r7---0-7--|----5-------5-|-8-5-----8-5-|
E|------------------|--------------|-------9-----9-|------9-----9-|------6-3-----|-----6-3-----|

   ll consume

G|-------------|-------------|
D|---7---7---7-|-------------|
A|-0---7---0---|-----4-----4-|
E|-------------|-5-7---0-5---|


Chorus:

  Dark shines           Bringing me down

G|------------------|------------------|------------------|------------------|
D|-0-0-0h5h7-0--/12-|-0-0-0h5h7-0--/12-|------------------|------------------|
A|------------------|------------------|-0-0-0h5h7-0--/12-|-0-0-0h5h7-0--/12-|
E|------------------|------------------|------------------|------------------|

  Making my heart feel sore      Cause it's good         Your

G|-----------------|-----------------|------------------|------------------|
D|-----------------|-----------------|------------------|------------------|
A|-----3h5-5-------|-----6h8-8-------|-0-0-0h5h7-0--/12-|-0-0-0h5h7-0--/12-|
E|-3-3-------3-/12-|-6-6-------6-/12-|------------------|------------------|

  Dark shines           Bringing me down

G|------------------|------------------|------------------|------------------|
D|-0-0-0h5h7-0--/12-|-0-0-0h5h7-0--/12-|------------------|------------------|
A|------------------|------------------|-0-0-0h5h7-0--/12-|-0-0-0h5h7-0--/12-|
E|------------------|------------------|------------------|------------------|

  Making my heart feel sore      Cause it's good

G|-----------------|-----------------|------------------|------------------|
D|-----------------|-----------------|------------------|------------------|
A|-----3h5-5-------|-----6h8-8-------|-0-0-0h5h7-0--/12-|-0-0-0h5h7-0--/12-|
E|-3-3-------3-/12-|-6-6-------6-/12-|------------------|------------------|


Bridge/long solo:

G|-------------|-------------|--------------|--------------|
D|-5-------5---|-5-------5---|--------------|--------------|
A|---5-------5-|---5-------5-|-5-7-8--0-5-8-|-5-7-8--0-5-8-| Repeat x3
E|-----6-3-----|-----6-3-----|--------------|--------------|

G|-------------|-------------|-------------|-------------|
D|-6-------6---|-6-------6---|-7-------7---|-7-------7---|
A|---8-5-----8-|---8-5-----8-|---7-4-----7-|---7-4-----7-|
E|-------7-----|-------7-----|-------5-----|-------5-----|

G|-------------|--------------|--------------|      |----------------------|
D|-------------|--------------|--------------|      |----------------------|
A|-------------|-5-7-8--0-5-8-|-5-7-8--0-5-8-| Repeat x3 |-8-7---8-7------------|
E|-3-3-----3-3-|--------------|--------------|      |-------------5-(ring)-|


Chorus:

  (instrumental only)

G|------------------|------------------|------------------|------------------|
D|-0-0-0h5h7-0--/12-|-0-0-0h5h7-0--/12-|------------------|------------------|
A|------------------|------------------|-0-0-0h5h7-0--/12-|-0-0-0h5h7-0--/12-|
E|------------------|------------------|------------------|------------------|

G|-----------------|-----------------|------------------|------------------|
D|-----------------|-----------------|------------------|------------------|
A|-----3h5-5-------|-----6h8-8-------|-0-0-0h5h7-0--/12-|-0-0-0h5h7-0--/12-|
E|-3-3-------3-/12-|-6-6-------6-/12-|------------------|------------------|

  Dark shines           Bringing me down

G|------------------|------------------|------------------|------------------|
D|-0-0-0h5h7-0--/12-|-0-0-0h5h7-0--/12-|------------------|------------------|
A|------------------|------------------|-0-0-0h5h7-0--/12-|-0-0-0h5h7-0--/12-|
E|------------------|------------------|------------------|------------------|

  Making my heart feel sore      Cause it's good

G|-----------------|-----------------|------------------|------------------|
D|-----------------|-----------------|------------------|------------------|
A|-----3h5-5-------|-----6h8-8-------|-0-0-0h5h7-0--/12-|-0-0-0h5h7-0--/12-|
E|-3-3-------3-/12-|-6-6-------6-/12-|------------------|------------------|


Outro:

G|---------------------------------------------------------------------------|
D|------------0h5h7-------------------0h5h7----------------------------------|
A|0-0-0h5h7-0-------0-0h3h5-0-0h5h7-0-------5-(ring out)---------------------|
E|---------------------------------------------------------------------------|


************************************

| h  Hammer-on
| r  Release
| /  Slide up
| \  Slide down

************************************
ⓘ Bass guitar tab for 'Darkshines' by Muse, an alternative rock band formed in 1994 from Teignmouth, England. Muse is known for their rousing rock/pop music.

Almost there ...

Sign in to get your own page with links to favourite songs and more. You are just one click away...

Login with Facebook Login with Google