Log in

One click and you are in

Login with Facebook Login with Google

Why sign up and log in

Guitar Tabs Explorer
Peter Murphy tabs for Youre so close

Guitar tabs with lyrics

From phungus@camelot.bradley.edu  Wed Nov 17 03:33:52 1993
	id AA25247; Wed, 17 Nov 93 03:33:52 GMT
  (5.65c/IDA-1.4.4 for mcdonghj@unix2.tcd.ie); Tue, 16 Nov 1993 21:33:48 -0600
Status: RO

You're so close  --Peter Murphy from the album "Holy Smoke"


This transcription starts at the beginning of the first verse.  Listen to
the album for the rhythm and to know what notes to mute.


Verse 1:
                   ------------------------------------------------------
 		   ------------------------------------------------------
                   ------------------------------------------------------
                   -----------------------------5--5-5-5------2--2-2-2---
                   --1-1-0---0------------------3--3-3-3--3-5-0--0-0-0---
		   --------3---3----1-1-1-1-1-3--------------------------
                   [clean tone..]  [distortion........
Saaaaaay Yoooooooou                 I can hear the groove......

-------------------
-------------------
-------------------
-2-2-2--2-2-2--2---  Repeat distorted part.
-0-0-0--0-0-0--0---
-----------------3-


Chorus 1:

[clean guitar throughout]
-2-2-3-2-2--2-2-2--3-3-3-3--1-1-1-1-  The strum pattern may be wrong,
-3-3-3-3-3--3-3-3--3-3-3-3--1-1-1-1-  but I'm pretty sure it goes
-2-2-2-2-2--2-2-2--0-0-0-0--2-2-2-2-  D-G-F.
-0-0-0-0-0--0-0-0--0-0-0-0--3-3-3-3-
-------------------2-2-2-2--3-3-3-3-  Repeat for the rest of the chorus
-------------------3-3-3-3----------

Saaaaaaaaaaaaaaay  Yoooooou.....
            (Getting Closer....)

Verse 2:

Repeat the original distorted riff 4 times.


Chorus 2:

Verse 3:

Chorus 3:

The same chord progression as the previous choruses, but played with
palm-muted power chords.

---------------------------------------------------------
---------------------------------------------------------
---------------------------------------------------------
-3-3-3-3-3-3-3-3-3-3-3-3-3-3-3-3-12-12-12-12-12-12-12-12-
-5-5-5-5-5-5-5-5-5-5-5-5-5-5-5-5-10-10-10-10-10-10-10-10-
---------------------------------------------------------
 Saaaaaaaaaaaaaaaaaaaaaaaaaaay   Yoooooooooooou

-------------------------
-------------------------
-------------------------
-10-10-10-10-10-10-10-10-
--8--8--8--8--8--8--8--8-
-------------------------

On the 2nd half of the chorus, the original clean riff used in previous
choruses doubles this.

I haven't bothered to figure out the intro guitar (also used in the break).
If anyone knows this or has any corrections, they are welcome.

Lyle Erickson  phungus@camelot.bradley.edu

Almost there ...

Sign in to get your own page with links to favourite songs and more. You are just one click away...

Login with Facebook Login with Google