Log in

One click and you are in

Login with Facebook Login with Google

Why sign up and log in

Guitar Tabs Explorer
The Muffs bass tabs for Beat your heart out

Bass tabs

Tuning: Standard (E A D G)

Difficulty: Novice

Intro:

G|---------------------------------------------------------------------|
D|---------------------------------------------------------------------|
A|---------------------8-8-8-8-8-8-8-8-----------------6-6-6-6-6-6-6-6-|
E|-8/5-6-6-6-6-6-6-6-6-----------------6-6-6-6-6-6-6-6-----------------|

G|-----------------------------------------------------------------|
D|-----------------------------------------------------------------|
A|-----------------8-8-8-8-8-8-8-8-6-6-6-6-6-6-6-6-6-6-6-6-6-6-6-6-|
E|-6-6-6-6-6-6-6-6-------------------------------------------------|

Verse 1:

G|-----------------------------------------------------------------|
D|-----------------------------------------------------------------|
A|-----------------8-8-8-8-8-8-8-8-----------------6-6-6-6-6-6-6-6-|
E|-6-6-6-6-6-6-6-6-----------------6-6-6-6-6-6-6-6-----------------|

G|-----------------------------------------------------------------|
D|-----------------------------------------------------------------|
A|-----------------8-8-8-8-8-8-8-8-6-6-6-6-6-6-6-6-6-6-6-6-6-6-6-6-|
E|-6-6-6-6-6-6-6-6-------------------------------------------------| x2

Chorus 1:

G|-------------------------------------------------------------------------------------------------|
D|-------------------------------------------------------------------------------------------------|
A|-----------------6-6-6-6-6-6-6-6-----------------6-6-6-6-6-6-6-6-----------------6-6-6-6-6-6-6-6-|
E|-6-6-6-6-6-6-6-6-----------------6-6-6-6-6-6-6-6-----------------6-6-6-6-6-6-6-6-----------------|

G|-------------------------------------------------------------------------------------------------|
D|-------------------------------------------------------------------------------------------------|
A|-----------------8-8-8-8-8-8-8-8-----------------8-8-8-8-8-8-8-8-----------------8-8-8-8-8-8-8-8-|
E|-6-6-6-6-6-6-6-6-----------------6-6-6-6-6-6-6-6-----------------6-6-6-6-6-6-6-6-----------------|

Verse 2:

G|-----------------------------------------------------------------|
D|-----------------------------------------------------------------|
A|-----------------8-8-8-8-8-8-8-8-----------------6-6-6-6-6-6-6-6-|
E|-6-6-6-6-6-6-6-6-----------------6-6-6-6-6-6-6-6-----------------|

G|-----------------------------------------------------------------|
D|-----------------------------------------------------------------|
A|-----------------8-8-8-8-8-8-8-8-6-6-6-6-6-6-6-6-6-6-6-6-6-6-6-6-|
E|-6-6-6-6-6-6-6-6-------------------------------------------------| x2

Chorus 2:

G|------------------------------------------------------------------------------------------------|
D|------------------------------------------------------------------------------------------------|
A|-----------------6-6-6-6-6-6-6-6-----------------6-6-6-6-6-6-6-6----------------6-6-6-6-6-6-6-6-|
E|-6-6-6-6-6-6-6-6-----------------6-6-6-6-6-6-6-6----------------6-6-6-6-6-6-6-6-----------------|

G|-----------------------------------------------------------------|
D|-----------------------------------------------------------------|
A|-----------------8-8-8-8-8-8-8-8-----------------8-8-8-8-8-8-8-8-|
E|-6-6-6-6-6-6-6-6-----------------6-6-6-6-6-6-6-6-----------------|

Solo:

G|-----------------------------------------------------------------|
D|-----------------------------------------------------------------|
A|-----------------8-8-8-8-8-8-8-8-----------------6-6-6-6-6-6-6-6-|
E|-6-6-6-6-6-6-6-6-----------------6-6-6-6-6-6-6-6-----------------|

G|-----------------------------------------------------------------|
D|-----------------------------------------------------------------|
A|-----------------8-8-8-8-8-8-8-8-6-6-6-6-6-6-6-6-6-6-6-6-6-6-6-6-|
E|-6-6-6-6-6-6-6-6-------------------------------------------------| x2

Chorus 3:

G|-------------------------------------------------------------------------------------------------|
D|-------------------------------------------------------------------------------------------------|
A|-----------------6-6-6-6-6-6-6-6-----------------6-6-6-6-6-6-6-6-----------------6-6-6-6-6-6-6-6-|
E|-6-6-6-6-6-6-6-6-----------------6-6-6-6-6-6-6-6-----------------6-6-6-6-6-6-6-6-----------------|

G|-------------------------------------------------------------------------------------------------|
D|-------------------------------------------------------------------------------------------------|
A|-----------------8-8-8-8-8-8-8-8-----------------8-8-8-8-8-8-8-8-----------------8-8-8-8-8-8-8-8-|
E|-6-6-6-6-6-6-6-6-----------------6-6-6-6-6-6-6-6-----------------6-6-6-6-6-6-6-6-----------------|

G|------|
D|------|
A|------|
E|-6----|

************************************

| /   Slide

************************************

Almost there ...

Sign in to get your own page with links to favourite songs and more. You are just one click away...

Login with Facebook Login with Google