Log in

One click and you are in

Login with Facebook Login with Google

Why sign up and log in

Guitar Tabs Explorer
Mudvayne bass tabs for Dig1

Bass tabs with lyrics

MuDvAyNe "Dig"
Track 2 from L.D.50
Tabbed by Gregory C. Jones <jones@physics.harvard.edu>

Tabbed for standard tuning (B-E-A-D-G)
Ryknow's tuning on the album is (F#-B-F#-B-E).
Live, MuDvAyNe shifts everything up one semitone (one fret).

T=thumb slap
P=pop (double if necessary; use index and third fingers)
x=muted hit (thumb or pop)
H=hammer on
O=pull off
F=put index finger & thumb into "AOK" symbol and pick w/ index
 finger nail
/=slide up
/=slide down

intro (4x)
G --------6---------------6-------
D --------5---------------5-------
A --------------------------------
E --------------------------------
B 0---0-----------0---0-----------
  T   T   P       T   T   P

more intro (4x)
G --------6/--------------12\-----
D --------5/--------------11\-----
A --------------------------------
E --------------------------------
B 0---0-----------0---0-----------
  T   T   P       T   T   P

main riff

3x of
B 2-3-2-----------0-2-2-2-3-2-0-2-

4th time
G ------------------------6\------
D ------------------------5\------
A --------------------------------
E --------------------------------
B 2-3-2---0/------0---0-----------
          T       T   T   P

"Dig, bury me
Underneath everything that I am, rearranging"
Do main riff

"Dig, bury me
Underneath everything that I was, slowly changing"
Do main riff

Verse 1
"I would love to beat the face
Of any motherfucker that's thinking he can change me
White knuckles grip pushing through for the gold
If you want a piece of me I broke the motherfuckin' mold"

Verse riff
3x of
G --------6---------6-----4-------
D --------------------------------
A 4---4-----------4---4-4---4-4---
  T   T   P       x x x x x x x

4th time
G --------9---------9-------6-----
D --------------------------------
A 7-7-7-7-----7-7-7---7-7-7---7-7-
  x x x x P   x x x x x x x P x x

"I'm drowning in your wake
Shit rubbed in my face
Teething on concrete
Gums bleeding"

3x of
G --------6---------6-----4-------
D --------------------------------
A 4---4-----------4---4-4---4-4---
  T   T   P       x x x x x x x

4th time
G --6---------6-----0-----4---6---
D --------------------------------
A 4---4-4-6-7---4-4---4-4---4---4-
  x x x x T H x x x P x x P x x x

"Dig, bury me
Underneath everything that I am, rearranging"
Do main riff

"Dig, bury me
Underneath everything that I was, slowly changing"
Do main riff

"I struggle in violated space
Sell-out motherfuckers in the biz that try to fuck me
Hang from their T's rated-PG insight
I ain't selling my soul when there's nothing to buy"

Verse 2
3x of
G --------6---------6-----4-------
D --------------------------------
A 4---4-----------4---4-4---4-4---
  T   T   P       x x x x x x x

4th time
G --9-----9-----------9-109-------
D --------------------------------
A 7---7-7---5-5-6-7---------------
  x x x x x x x x H x P H O

"I'm livid in my space
Pissing in my face
Fuck you while you try
To fuck me"

Verse 2
2x of
G --------6---------6-----4-------
D --------------------------------
A 4---4-----------4---4-4---4-4---
  T   T   P       x x x x x x x

3rd time
G --------6---------6---------9-10
D --------------------------------
A 4---4-----------4---4-4-4-4-----
  T   T   P       x x x x x x P H

4th time
G ----------------------4---------
D ----------------5---------------
A 7-7-7-8-7-7-7-4---4-4---4-4-4-4-
  x x T H x x x x x x x x x x x x

"Dig..."
Do main riff

"Dig..."
Do main riff but 4th time becomes
"You ain't fucking changing me"
G --------------------------------
D ----------------9-------10------
A ----------------9-------10------
E --------------------------------
B 2-3-2---0/----------------------
                  F       F
                  (speed up)

G --------------------------------
D 11------14------13------12------
A 11------14------13------12------
E --------------------------------
B --------------------------------
  F       F       F       F

(regular speed)
<whispering>
"Dig Dig Dig Dig"
4x of
B 2-3-2---------------------------

"Dig, come on, come on, motherfucker dig"
4x of
B 2-3-2---------------------------

"Let me help you tie the rope around your neck"
G --------------------------------
D --------------------------------
A --------------------------------
E --------0-1-0-------0-1-0-------
B 2---2---------------------------

G --------------------------------
D --------------------------------
A --------------------------------
E 0-1-0-------0-1-0-------0-1-0---
B --------------------------------

"Let me help to talk you the wrong way off the ledge"
2x of
G --------------------------------
D --------5---------------5-------
A --------4---------------4-------
E --------------------------------
B 2---2-----------2---2-----------
  T   T   P       T   T   P

"Let me help you hold the Glock against your head"
G --------------------------------
D --------5/--------------5/------
A --------4/--------------4/------
E --------------------------------
B 2---2-----------2---2-----------
  T   T   P       T   T   P

G --------------------------------
D --------5/--------------11\-----
A --------4/--------------10\-----
E --------------------------------
B 2---2-----------2---2-----------
  T   T   P       T   T   P

"Let me help you tie the rope around your neck"
like the first "tie the rope" line

"Let me help to talk you the wrong way off the ledge"
G --------------------------------
D --------------------------------
A --------------------------------
E --------0-1-0-------0-1-0-------
B 2---2---------------------------

G --------------------------------
D ------------------------2-------
A --------------------------------
E 0-1-0-------0-1-0-0-0-1---1-0---
B --------------------------------

"Let me help you hold the glock against your head"
Like the "tie the rope" line

"Let me help you chain the weights onto your legs"
Like the "tie the rope" line

"Get on the plank fuck"
Play the six 4th chords from "You ain't fucking changing me"

Dig - main riff
Dig - main riff

"Wish your committing suicide"
B 2-3-2-----------0-2-2-2-3-2-0-2-

B 2-3-2-----------2-2-2-----------

"Sucking on a motherfucking tailpipe"
B 0-2-2-2-3-2-0-2-2-3-2-----------

"Dead man dangling from a tight rope"
B 0-2-2-2-3-2-0-2-2-3-2-----------

"Limbless in the middle of a channel"
B 0-2-2-2-3-2-0-2-2-3-2-----------

"Bobs away"
G --------6\------
D --------5\------
A ----------------
E ----------------
B 0---0-----------
  T   T   P

Other versions of Dig1

DigBass tabs

Almost there ...

Sign in to get your own page with links to favourite songs and more. You are just one click away...

Login with Facebook Login with Google