Log in

One click and you are in

Login with Facebook Login with Google

Why sign up and log in

Guitar Tabs Explorer
Mudvayne bass tabs for Dig

Bass tabs

Band: MuDvAyNe
Album: L.D. 50

Tabbed by: Nick Ingersoll

beginning
Intro Riff:
G------P6------P6
D----------------        <<<do this a lot at the first
E----------------
D--0-0-----0-0---

Chorus:
G------------------------------
D------------------------------
E------------------------------
D-0--0-1-2-1-0-1-0----0-1-2-1-0
after doin this    ^^^ 3 times do this:

G------P6------
D--------------
E-3/12---------
D--------------

verses:
G-----P6---------------P6--
D--------------------------After playing 3 times only play the 2 0's
E-------------------------- after the chorus
D-0-0-----0-1-2-1-0-1-0----

"YOU AIN'T F****N CHANGIN ME"
G---------------
D---------------
E---------------
D-3-4-5-6-5-4-3-

"DIG!!!!! NOW MOTHA f***** DIG!!!"
G-------x-x-x-x--------Ryknow uses his finger nails to make the sound
D-------x-x-x-x--------
E-------x-x-x-x--------
D-0-x---x-x-x-x--------

This is the part be for he says "LET ME HELP YOU"
G-----6P--------6P
D-----------------
E-----------------
D-0-0-----0-0-----

Now this is where he yells
G----------------------------
D----------------------------Play twice then go to E12 and then play
E----------------------------again
D-3-2--3-2--3--3-2-3-0-2-3-2-

The rest u already just played so it should go pretty easy
LATER,
  Nick

any questions or comments reach me at beavis_boy13@hotmail.com

Other versions of Dig

Dig1Bass tabs

Almost there ...

Sign in to get your own page with links to favourite songs and more. You are just one click away...

Login with Facebook Login with Google