Log in

One click and you are in

Login with Facebook Login with Google

Why sign up and log in

Guitar Tabs Explorer
Mudhoney tabs for Make it now

Guitar tabs with lyrics

MUDHONEY
Make it Now
by:Mark Arm and Mudhoney


INTRO and INTERLUDE

intro/interlude part 1
||----------||
||----------||
||-8-8-8--\7--\6-6-6--\5--\4-4-x-x-4-4-4--||
||-8-8-8--\7--\6-6-6--\5--\4-4-x-x-4-4-4--||
||-6-6-6--\5--\4-4-4--\3--\2-2-x-x-2-2-2--||
||----------||
After playing the above 4 x's play the below once

intro/interlude part 2
||----------||
||----------||
||----------||
||-7\6-(let ring)-||
||-7\6-(let ring)-||
||-5\4-(let ring)-||


VERSE

verse part 1
||-(feedback)--||
||-(feedback)--||
||-(feedback)--||
||-(feedback)--||
||-(feedback)--||

FILL for verse
||----------||
||----------||
||----------||
||---------------1-----||
||----2--4--2----2--4--4||
||-4-------||
>From fill go to pre-chorus

PRE-CHORUS
||----------||
||6-6-6-6-x-||
||6-6-6-6-x-||
||4-4-4-4-x-||
||----------||

Play the above three times then play the below once
||----------||
||----------||
||-6-6-6/8-8-8-||
||-6-6-6/8-8-8-||
||-4-4-4/6-6-6-||
||----------||
Now play the intro/interlude part 2
Next play the verse and the fill for the verse.
Now play the pre-chorus again but this time go to the chorus when your done
with the pre-chorus.

CHORUS

chorus part 1
||----------||
||----------||
||----------||
||-6-6--/9--6-||
||-6-6--/9--6-||
||-4-4--/7--4-||
play the chorus part 1 3 times then play the chorus part 2 once

chorus part 2
||----------||
||----------||
||-6-(let ring)-||
||-6-(let ring)-||
||-4-(let ring)-||
||----------||
Play the the whole chorus 3 times
Next play the intro/interlude part 1 twice and the intro interlude part 2
once.

verse part 2
||----------||
||----------||
||----------||
||6-6-6-6-||
||6-6-6-6-||
||4-4-4-4-||
x--phm----x
(phm=pick hand mute)
This time play the above(verse part 2) instead of verse part 1.
Play verse part 2 three times and then play the fill.
Next play the pre-chorus.
Play the verse part 1 and the fill.
Play the pre-chorus.
Play the chorus
Play intro/interlude part 1 twice and intro/interlude part 2 once.
Play the verse part 1 and the fill.
Play the pre-chorus.
Play the chorus.
Play feedback and then you are done.
Send comments, suggestions, and corrections to Steve22067@aol.com

Almost there ...

Sign in to get your own page with links to favourite songs and more. You are just one click away...

Login with Facebook Login with Google