GuitarTabsExplorer icon
GuitarTabsExplorer icon

Log in

Songbook

  • Log in to add and see bookmarks

Last visited songs

    No songs visited yet...

Wishing Well by Bob Mould

Tabs

Capo 4th fret

intro 4x:

   Chord diagramE minorEm    Chord diagramG6G6   A(sus2)
E:---4---------4----------4
B:---4---------4----------4
G:---4---------4----------6
D:---6---------4----------6
A:---6---------6----------4
E:---4---------7----------4

Chord diagramE minorEm           Chord diagramAsus2Asus2
Wishing ..
Chord diagramC majorC     Chord diagramG6G6       Chord diagramAsus2Asus2
I ..
Chord diagramE minorEm           Chord diagramAsus2Asus2     Chord diagramC majorC     Chord diagramG6G6      Chord diagramAsus2Asus2
Surrounds ..
Chord diagramE minorEm         Chord diagramAsus2Asus2
Wishing ..
Chord diagramC majorC   Chord diagramG6G6      Chord diagramAsus2Asus2
Every ..
Chord diagramE minorEm             Chord diagramAsus2Asus2
In a ..
Chord diagramC majorC    Chord diagramG6G6   Chord diagramAsus2Asus2
Sits ..

   Chord diagramG+G             G(Chord diagramE MajorE)         Chord diagramAsus2Asus2 Chord diagramA augmentedA
E:---7--------------------------7--------------------4-----4
B:---4--------------------------4--------------------4-----6
G:---4--------------------------4--------------------6-----6
D:---4--------------------------6--------------------6-----6
A:---6--------------------------x--------------------4-----4
E:---7--------------------------7--------------------4-----4
 Could ..

Chord diagramG+G          Chord diagramE minorEm   Chord diagramAsus2Asus2
Will ..?

Chord diagramC majorC
I wish ..

  Chord diagramB7sus4B7sus4
E:---4
B:---4
G:---6
D:---5
A:---6
E:---4
I ..
Chord diagramE minorEm  Chord diagramG6G6  Chord diagramAsus2Asus2
Wishing ..

Chord diagramE minorEm    Chord diagramG6G6     Chord diagramAsus2Asus2
Ohh, ..

(The rest of the verse and chorus is the same)

Deepest ..
Wishing ..
Homes ..
That ..
The ..
Calls ..
Lays ..
city ..

What ..
Will ..?
I wish ..

   Chord diagramE minorEm  F#7(add15)   Chord diagramG6G6   A(add9)
E:---4---------4----------4-------4
B:---4---------4----------4-------4
G:---4---------7----------8-------10
D:---6---------8----------9-------11
A:---6---------8----------9-------11
E:---4---------6----------7-------9
  Twist ..

   Chord diagramE minorEm    Chord diagramG6G6   Dsus2(6) Chord diagramC#m7C#m7  A(add9)
E:---4---------4-------4--------4-------4
B:---4---------4-------4--------4-------4
G:---4---------8-------11-------10------10
D:---6---------9-------11-------10------11
A:---6---------9-------9--------8-------11
E:---4---------7-------4--------4-------9
  Around   ..

   Chord diagramE minorEm      F#7(add15)      Chord diagramG6G6     A(add9)  D#(add15)
E:---4----------------4----------------4-------------4----------4
B:---4----------------4----------------4-------------4----------4
G:---4----------------7----------------8-------------10---------12
D:---6----------------8----------------9-------------11---------13
A:---6----------------8----------------9-------------11---------13
E:---4----------------6----------------7-------------9----------11
   Wish ..

There’s a ..
Trade a ..
Roots ..
Mountain ..
The ..
Kind ..
The ..
Wishing ..
When ..
Wish ..
Four ...

Other versions of Wishing Well

Alternative guitar chords and tabs for Wishing Well by Bob Mould

VersionType
Wishing wellChords

[ Privacy | About us ]

Welcome to the guitar community

Why join and log in?
- Get songbook with favourite songs
- Get custom made front page
- Submit chords and tabs
- Submit guitar-cover videos
- Get a lot of thumbs up for your work

Songbook

Last visited songs

Site
Home
Search
Community
Submit chords

Video

No video for this page. Check out how you can submit guitar-cover videos here

Search tabs and chords

Browse by artist

A B C D E F G H I J K L M N O P Q R S T U V W X Y Z #


Menu

Search

Video

Bookmark

Login