Search tabs and chords

Search for song, artist or band

Log in

One click and you are in

Login with Facebook Login with Google

Why sign up and log in

Guitar Tabs Explorer
Mötley Crüe bass tabs for Youre all i need

Bass tabs

Tuning: Standard (E A D G)


Tuning: Standard

Intro:

G|--------------------------------------|
D|-6--------6---------4--------4--------|
A|-----------------4------------------6-|
E|--------------------------------------|

G|--------------------------------------|
D|-6--------6---------4--------4--------|
A|-----------------4--------------------|
E|--------------------------------------|

G|--------------------------------------|
D|-3-------1--1-------------------------|
A|-----------------4--4------4----------|
E|----1--------------------4------------|

Verse 1:

G|----------------------------------------------|
D|-----------1------4---------------------------|
A|--------1------------2-------2--1-------------|
E|-2---------------------------------4--2-------|

G|-----------------------------4--3--1---------------------------|
D|-4---------1------4-------4-----------4--------4-4-4-4-4---4---|
A|--------1------------2-----------------------------------------|
E|-----------------------------------------2-2-2-----------2---2-|

Chorus:

G|-----4---------6--------------------------|
D|------------------------------------------|
A|-2------2--4------4--6---6-----6----6--4--| x3
E|----------------------------6-----6-------|

G|-----4---------------|
D|---------------------|
A|-2------2--4---------|
E|---------------------|

Verse 2:

G|---------------------------------------------------------------|
D|----------1---3h4-3-1-1--4-------------------------4-4-4-4-4---|
A|-------1--------------------2-----2--1-------------------------|
E|-2--------------------------------------4--2-2-2-2-----------2-|

Chorus:

G|-----4---------6--------------------------|
D|------------------------------------------|
A|-2------2--4------4--6---6-----6----6--4--| x3
E|----------------------------6-----6-------|

G|-----4---------------|
D|---------------------|
A|-2------2--4---------|
E|---------------------|

Solo:

G|--------------------------------------|
D|-6--------6---------4--------4--------|
A|-----------------4------------------6-|
E|--------------------------------------|

G|--------------------------------------|
D|-6--------6---------4--------4--------|
A|-----------------4--------------------|
E|--------------------------------------|

G|--------------------------------------|
D|-3-------1--1-------------------------|
A|-----------------4--4------4--4-4-4-4-|
E|----1--------------------4------------|

Out-Chorus:

G|-----4---------6--------------------------|
D|------------------------------------------|
A|-2------2--4------4--6---6-----6----6--4--| x5
E|----------------------------6-----6-------|

(fade out)


| h  hammer-on

You're All I Need bass tab

Mötley Crüe bass tabs for Youre all i need "You're All I Need" was the third single to be released from LA rockers Mötley Crüe's "Girls, Girls, Girls" album from 1987. "You're All I Need" is a glam metal song. Nikki Sixx plays bass on the recording.

Almost there ...

Sign in to get your own page with links to favourite songs and more. You are just one click away...

Login with Facebook Login with Google