Search tabs and chords

Search for song, artist or band

Log in

One click and you are in

Login with Facebook Login with Google

Why sign up and log in

Guitar Tabs Explorer
Mötley Crüe guitar tabs for Take me to the top (Ver. 2)

Guitar tabs

INTRO/CHORUS
PM         PM        PM
D|----------------------------------------------|
A|----------------------------------------------|
F| chord diagramF|F|-------9--7-------7--5-----5--7---------------|
C| chord diagramC|C|-------7--5-------5--7-----7--5---------------|
G|--0-0--------0-0--------0-----------0--5h7-0-0|
D|----------------------------------------------|
Bridge:

PM      PM      PM    PM
D|------------------------------------------|
A|----------------------------------------5*|
F| chord diagramF|F|-------9-------9------9-------------5*5*--|
C| chord diagramC|C|-------7-------7------7-------5*--5*------|
G|--0-0-----0-0-----0-0-----------5*--------|
D|------------------------------------------|

PM      PM      PM     PM
D|----------------------------------|
A|----------------------------------|
F| chord diagramF|F|-------9-------9-------9-----9--7-|
C| chord diagramC|C|-------7-------7-------7-----7--5-|
G|--0-0-----0-0-----0-0-----0-------|
D|----------------------------------|


1st time move picking hand up the string to create harmonics
2nd time move picking hand back down the string to create harmonics
D|------------------------------------------|
A|------------------------------------------|
F| chord diagramF|F|------------------------------------------|
C| chord diagramC|C|------------------------------------------|
G|--3---5---0-0-0-0-0-0-0-0-0-0-0-0-0-0-0-0-|
D|--1---3-----------------------------------|   X2


Verse:
PM------------|      PM-----------------|

D|---------------------------------------------------|
A|---------------------------------------------------|
F| chord diagramF|F|---------------------------7-----------------------|
C| chord diagramC|C|----------2-2-2-2-2-2-2-2--5-----------------------|
G|--3---5---0-0-0-0-0-0-0-0------5-5-5-5-5-5-5-5-----|
D|--1---3------------------------3-3-3-3-3-3-3-3-----|

PM------|          PM------|       PM--------------|

D|---------------------------------------------------------|
A|---------------------------------------------------------|
F| chord diagramF|F|---------------------------------------------------------|
C| chord diagramC|C|--9--9-9-9-9-9--10--10-10-10-10-10--12--12-12-12-12-12---|
G|--7--7-7-7-7-7--8---8--8--8--8--8---10--10-10-10-10-10---|
D|---------------------------------------------------------|

Take Me To The Top tab

Mötley Crüe guitar tabs for Take me to the top (Ver. 2) "Take me to the top" is a song from American hard rockers Mötley Crüe's debut album from 1981, "Too fast for love". The album was initialy released on the band's own label "Leathür" and then re-released by Elektra in 1982.

Other versions of Take Me To The Top

Take me to the topTabs

Almost there ...

Sign in to get your own page with links to favourite songs and more. You are just one click away...

Login with Facebook Login with Google