Log in

One click and you are in

Login with Facebook Login with Google

Why sign up and log in

Guitar Tabs Explorer
Gary Moore bass tabs for Still got the blues

Bass tabs

Still Got The Blues.btab
Gary Moore
TablEdited by Poppamies

Tuning : E A D G 	Time Signature: 6/8

 tempo 80  |      |      |      |      |
|------------------------|------------------------|------------------------|
|------------------------|0-----------------------|------------------------|
|------------------------|------------------------|------------------------|
|------------------------|------------------------|3-----------------------|

 |      |      |      |      |      |
|------------------------|------------------------|------------------------|
|------------------------|----------------3---2---|------------------------|
|3-----------------------|------------------------|2-----------------------|
|------------------------|1-----------------------|------------------------|

 |      |      |      |      |      |
|------------------------|------------------------|------------------------|
|2-----------------------|----------------2-------|--------------------2---|
|----------------2-------|0-------------------3---|0-----------0---3-------|
|--------------------3---|------------------------|------------------------|

 |      |      |      |      |      |
|------------------------|0-----------------------|------------------------|
|0-----------------------|------------------------|------------------------|
|------------------------|------------------------|3-----------------------|
|------------------------|------------------------|------------------------|

 |      |      |      |      |      |
|------------------------|------------------------|------------------------|
|3---------------3---2---|------------------------|2-----------------------|
|------------------------|2-----------------------|----------------2-------|
|------------------------|------------------------|--------------------3---|

 |      |      |      |      |      |
|------------------------|------------------------|------------------------|
|------------------------|--------------------2---|0-----------------------|
|0-----------2-----------|3-----------0---3-------|------------------------|
|------------------------|------------------------|------------------------|

 |      |      |      |      |      |
|0-----------------------|------------------------|------------------------|
|------------------------|------------------------|3---------------3---2---|
|------------------------|3-----------------------|------------------------|
|------------------------|------------------------|------------------------|

 |      |      |      |      |      |
|------------------------|------------------------|9---9---9---9---9---9---|
|------------------------|------------------------|9---9---9---9---9---9---|
|2-----------------------|2-----------------------|7---7---7---7---7---7---|
|------------------------|------------------------|0---0---0---0---0---0---|

 |      |      |      |      |      |
|9---9---9---9---9---0---|------------------------|------------------------|
|9---9---9---9---9---0---|------------------------|------------------------|
|7---7---7---7---7-------|0-----------------------|------------------------|
|0---0---0---0---0---3---|------------------------|0-------------------3---|

 |      |      |      |      |      |
|------------------------|------------------------|------------------------|
|------------------------|0-----------------------|------------------------|
|0-----------------------|------------------------|------------------------|
|------------------------|------------------------|1-----------------------|

 |      |      |      |      |      |
|------------------------|------------------------|------------------------|
|------------------------|----------------2-------|--------------------2---|
|------------------------|0-------------------3---|0-----------0---3-------|
|0-----------------------|------------------------|------------------------|

 |      |      |      |      |      |
|------------------------|0-----------------------|------------------------|
|0-----------------------|------------------------|------------------------|
|------------------------|------------------------|3-----------------------|
|------------------------|------------------------|------------------------|

 |      |      |      |      |      |
|------------------------|------------------------|------------------------|
|3---------------3---2---|------------------------|2-----------------------|
|------------------------|2-----------------------|----------------2-------|
|------------------------|------------------------|--------------------3---|

 |      |      |      |      |      |
|------------------------|------------------------|------------------------|
|------------------------|--------------------2---|0-----------------------|
|0-----------2-----------|3-----------0---3-------|------------------------|
|------------------------|------------------------|------------------------|

 |      |      |      |      |      |
|0-----------------------|------------------------|------------------------|
|------------------------|------------------------|3---------------3---2---|
|------------------------|3-----------------------|------------------------|
|------------------------|------------------------|------------------------|

 |      |      |      |      |      |
|------------------------|------------------------|9---9---9---9---9---9---|
|------------------------|------------------------|9---9---9---9---9---9---|
|2-----------------------|2-----------------------|7---7---7---7---7---7---|
|------------------------|------------------------|0---0---0---0---0---0---|

 |      |      |      |      |      |
|9---9---9---9---9---0---|------------------------|------------------------|
|9---9---9---9---9---0---|------------------------|------------------------|
|7---7---7---7---7-------|0-----------------------|------------------------|
|0---0---0---0---0---3---|------------------------|0-------------------3---|

 |      |      |      |      |      |
|------------------------|------------------------|------------------------|
|------------------------|0-----------------------|------------------------|
|0-----------------------|------------------------|------------------------|
|------------------------|------------------------|1-----------------------|

 |      |      |      |      |      |
|------------------------|------------------------|------------------------|
|------------------------|------------------------|------------------------|
|------------------------|0-----------------------|0---------------0---1---|
|0-----------------------|------------------------|------------------------|

 |      |      |      |      |      |
|------------------------|------------------------|------------------------|
|------------------------|2-----------------------|------------------------|
|2-----------------------|----------------2-------|0-----------2-----------|
|------------------------|--------------------3---|------------------------|

 |      |      |      |      |      |
|------------------------|------------------------|------------------------|
|------------------------|------------------------|2-------------------2---|
|3---------------0---1---|2-----------------------|------------------------|
|------------------------|------------------------|------------------------|

 |      |      |      |      |      |
|------------------------|------------------------|------------------------|
|3-----------2-----------|0-----------------------|----------------2-------|
|------------------------|------------------------|0-------------------3---|
|------------------------|------------------------|------------------------|

 |      |      |      |      |      |
|------------------------|------------------------|0-----------------------|
|--------------------2---|0-----------------------|------------------------|
|0-----------0---3-------|------------------------|------------------------|
|------------------------|------------------------|------------------------|

 |      |      |      |      |      |
|------------------------|------------------------|------------------------|
|------------------------|3-----------------------|------------------------|
|3-----------------------|------------------------|------------------------|
|------------------------|------------------------|------------------------|

http://www.geocities.com/jani_bjorklund/janis.html

Other versions of Still Got The Blues

Still got the blues (Ver. 2)Bass tabs
Still got the blues (for you)Bass tabs

Almost there ...

Sign in to get your own page with links to favourite songs and more. You are just one click away...

Login with Facebook Login with Google