Guitar Tabs Explorer
Misc Traditional bass tabs for Soviet union national anthem

Soviet Union National Anthem bass tab


4 / 5 [3 votes]

Soviet Union National Anthem bass tab by Misc Traditional

Bass tabs

Print

Tuning: Standard (E A D G)

G|0-5-0----4----------0-----0--------------------0----4-5--7--0---9--7--5-7-4--0-5-4---4-----|
D|------7-----2-2--7-----3----------0--0-2-3--3----7----------------------------------7------|
A|----------------------------3-3--------------------------------------------------------2-2-|
E|-------------------------------------------------------------------------------------------|

G|---0---0-----5-4---0-----9--7-5-4-5-7-4--0-0--5-4----0---4-----------------|
D|-7---3-----------7---------------------------------7---7----2-2------------|
A|---------3-3---------------------------------------------------------------|
E|---------------------------------------------------------------------------|

Comment this song and these bass tabs

Do you have corrections, comments on the bass tabs, thoughts about the song or a message to the author? Write them below.