Log in

One click and you are in

Login with Facebook Login with Google

Why sign up and log in

Guitar Tabs Explorer
Misc Soundtrack guitar tabs for Black orpheus

Guitar tabs with lyrics

Title : Black Orpheus
Artist : Louis Bonfi
Tabbed By : Ron Slade
Style : Bossa Nova
Time Signature: 4/4
Key:  A chord diagramA augmentedA minor

This can be played as a Samba as well
Alternate (Samba) chords are placed above the original chords
Many notes are held for 6 or 7 counts, please listen to a recording to
Determine what sounds best for you
This TAB is for a Samba feel - open strings where possible

     A-7                                A-7
     A-                B-7b5    A chord diagramE7b9E7b9    A-               B-7b5    A chord diagramE7b9E7b9
E---|-----------------|----------------|----------------|----------------
B---|-1-----------0---|---------------0|----------------|----------------
G---|---------------2-|-2-----------1--|----------------|----------------
D---|-----------------|----------------|----------------|----------------
A-2-|-----------------|----------------|-2--------------|-------------2--
E---|-----------------|----------------|----------------|----------------
      1 & 2 & 3 & 4 &   1 & 2 & 3 & 4 &  1 & 2 & 3 & 4 &  1 & 2 & 3 & 4 &

     A-7               D-69     G9sus    G#b9#5  A chord diagramCmaj7Cmaj7
     A-                D-7      A chord diagramG7G7       A chord diagramCmaj7Cmaj7           C#07     A chord diagramA7b9A7b9
E---|-----------------|----------------|----------------|----------------
B---|-1-----------0---|---------------0|----------------|----------------
G---|---------------2-|-2-----------0--|----------------|----------------
D---|-----------------|----------------|----------------|---------------0
A-2-|-----------------|----------------|-2--------------|-----------2-3--
E---|-----------------|----------------|----------------|----------------
      1 & 2 & 3 & 4 &   1 & 2 & 3 & 4 &  1 & 2 & 3 & 4 &  1 & 2 & 3 & 4 &

      D-69              G9sus            A chord diagramCMaj9Cmaj9   A chord diagramF#7b5F#7b5
      D-7               A chord diagramG7G7               A chord diagramC6C6               A chord diagramFmaj7Fmaj7
E---|-----------------|----------------|----------------|----------------
B---|-----------------|----------------|----------------|----------------
G---|-2---------------|----------------|-0--------------|----------------
D---|-------0-0-------|-----------0-2-3|----------------|-----------0-2--
A---|-----------------|----------------|-------3-3------|---------3------
E---|-----------------|----------------|----------------|----------------
      1 & 2 & 3 & 4 &   1 & 2 & 3 & 4 &  1 & 2 & 3 & 4 &  1 & 2 & 3 & 4 &

                                         A-7
      B-7b5             A chord diagramE7b9E7b9             A-               B-7b5   A chord diagramE7b9E7b9
E---|-----------------|----------------|----------------|----------------
B---|-----------------|----------------|----------------|----------------
G---|-----------------|----------------|----------------|----------------
D---|-3---------------|---------------0|-2--------------|-------------2--
A---|-------2-2-------|-----------2-3--|----------------|----------------
E---|-----------------|----------------|----------------|----------------
      1 & 2 & 3 & 4 &   1 & 2 & 3 & 4 &  1 & 2 & 3 & 4 &  1 & 2 & 3 & 4 &

      A-7                                A-7
      A-                B-7b5   A chord diagramE7b9E7b9     A-               B-7b5  A chord diagramE7b9E7b9
E---|-----------------|----------------|----------------|----------------
B---|-1-----------0---|---------------0|----------------|----------------
G---|---------------2-|-2-----------1--|----------------|----------------
D---|-----------------|----------------|-2--------------|-------------2--
A---|-----------------|----------------|----------------|----------------
E---|-----------------|----------------|----------------|----------------
      1 & 2 & 3 & 4 &   1 & 2 & 3 & 4 &  1 & 2 & 3 & 4 &  1 & 2 & 3 & 4 &

                                         D-69             D-69
      E-7b5             A chord diagramA7b9A7b9             D-               D-
E---|-----------------|----------------|----------------|----------------
B---|-----------------|----------------|----------------|----------------
G---|-3-----------2-0-|-0--------------|-2--------------|----------------
D---|-----------------|-------------3-2|----------------|-------------0--
A---|-----------------|----------------|----------------|----------------
E---|-----------------|----------------|----------------|----------------
      1 & 2 & 3 & 4 &   1 & 2 & 3 & 4 &  1 & 2 & 3 & 4 &  1 & 2 & 3 & 4 &

      D-69                               A-7
      D-      D-/C      B-7b5   A chord diagramE7b9E7b9     A-      A-7/G    A chord diagramFmaj7Fmaj7
E---|-----------------|----------------|----------------|----------------
B---|-----------------|-0--------------|----------------|----------------
G---|-----------------|----------------|----------------|-2-----------1--
D---|-0-----------2-3-|----------------|-------------0-2|----------------
A---|-----------------|----------------|-----3---3------|----------------
E---|-----------------|----------------|----------------|----------------
      1 & 2 & 3 & 4 &   1 & 2 & 3 & 4 &  1 & 2 & 3 & 4 &  1 & 2 & 3 & 4 &

                                         A-7
      B-7b5             A chord diagramE7b9E7b9             A-               B-7b5  A chord diagramE7b9E7b9
E---|-----------------|----------------|----------------|----------------
B---|-----------------|----------------|----------------|----------------
G---|-----------------|---------------0|-2--------------|----------------
D---|-2---------------|---------3---3--|----------------|-------------2--
A---|-----------------|----------------|----------------|----------------
E---|-----------------|----------------|----------------|----------------
      1 & 2 & 3 & 4 &   1 & 2 & 3 & 4 &  1 & 2 & 3 & 4 &  1 & 2 & 3 & 4 &

play last time only

      A-7
      A-                D-7    A-7       D-7     A-7      D-7    E-7
E---|-----------------|----------------|----------------|----------------
B---|-----------------|-1---3-1-0------|-1---3-1-0------|-1---3-1-0------
G---|-2-----------2-4-|-------------2-4|-------------2-4|-------------2-0
D---|-----------------|----------------|----------------|----------------
A---|-----------------|----------------|----------------|----------------
E---|-----------------|----------------|----------------|----------------
      1 & 2 & 3 & 4 &   1 & 2 & 3 & 4 &  1 & 2 & 3 & 4 &  1 & 2 & 3 & 4 &

      A-7               A-6
      A-                A-
E---|-----------------|----------------|
B---|-----------------|----------------|
G---|-2---------------|----------------|
D---|-----------------|----------------|
A---|-----------------|----------------|
E---|-----------------|----------------|
      1 & 2 & 3 & 4 &   1 & 2 & 3 & 4 &


Special Samba fingerings
A-7   A-6   D-69   G9sus  G#b9#5  A chord diagramCmaj7Cmaj7  A chord diagramCMaj9Cmaj9  A chord diagramF#7b5F#7b5  B-7b5 A chord diagramE7b9E7b9 C#07
--0-----0-----0------0------0-------0------0------0-------0----0-----0--
--0-----0-----0------0------0-------0------0------5-------3----3-----5--
--5-----5-----5------2------1-------0------0------3-------2----1-----3--
--5-----4-----3------3------2-------2------0------2-------3----3-----5--
--0-----0-----5------3------3-------3------3------3-------2----2-----4--
--0-----0-----5------3------4-------3------3------2-------1----0-----x--


Joao Bosco style samba guitar rhythm

every other (usually) measure the chord is played 1/2 beat early
the bass is played on the beat (1 & 3) ^Ö root first then the 5th tone
if no 5th tone is lower than the root, the root is played again.  On
chords with altered 5th remember to play the altered 5th in the Bass
as shown below

play open strings where possible

   B-7b5         A chord diagramE7b9E7b9
------0-----------|---0---------0--
--3---3-----3---3-|---3---3-----3--
--2---2-----2---1-|---1---1-----1--
--3---------3---3-|-------3--------
--2---------------|----------------
----------1-------|-0-------0------
   1 & 2 & 3 & 4 &   1 & 2 & 3 & 4 &

_________________________________________________________________

Other versions of Black Orpheus

Black orpheusChords
Black orpheus themeChords

Almost there ...

Sign in to get your own page with links to favourite songs and more. You are just one click away...

Login with Facebook Login with Google