Log in

One click and you are in

Login with Facebook Login with Google

Why sign up and log in

Guitar Tabs Explorer
Misc Soundtrack guitar tabs for A kiss before dying barbed wire

A Kiss Before Dying Barbed Wire tab by Misc Soundtrack

Misc Soundtrack guitar tabs for A kiss before dying barbed wire

Guitar tabs

Drop e

These are just the chords. They are all bar chords I'll learn you the strumming pattern
when ever we have next practice.
Verse: e|-5--0--x--|
       B|-6--6--7--|
       G|-7--7--6--|
       D|-8--0--0--|
       A|-5--0--0--|
       D|-5--0--0--|


Bridge: e|-7--x---0--x|      e|-7--x---x---0--x--0--x--0-----|
        B|-8--8---7--6|      B|-8--10--8---6--6--6--6--6-----|
        G|-9--10--6--7| x2   G|-9--9---10--7--7--7--7--7--7--|
        D|-7--7---0--0|      D|-7--7---7---0--0--0--0--0--0--|
        A|-7--7---0--0|      A|-7--7---7---0--0--0--0--0--0--|
        D|-7--7---0--0|      D|-7--7---7---0--0--0--0--0--0--|


Chorus: e|-5--0--x--5--x---x---7--5--0--x--x---x---7--0--x--0--x--0-----|
        B|-6--6--6--6--10--8---8--6--6--6--10--8---8--6--6--6--6--6-----|
        G|-7--7--7--7--9---10--9--7--7--7--9---10--9--7--7--7--7--7--7--|
        D|-8--0--0--8--7---7---7--8--0--0--7---7---7--0--0--0--0--0--0--|
        A|-5--0--0--5--7---7---7--5--0--0--7---7---7--0--0--0--0--0--0--|
        D|-5--0--0--5--7---7---7--5--0--0--7---7---7--0--0--0--0--0--0--|


Outro: e|----------------------5.-----------------------|
       B|-------------6.-----------------6.-------------|
       G|----------7-----7---------7---------7----------|
       D|-------8-----------8---------8---------8-------|
       A|----5-------------------------------------(5)--|
       D|-5.--------------------------------------------|

Almost there ...

Sign in to get your own page with links to favourite songs and more. You are just one click away...

Login with Facebook Login with Google