GuitarTabsExplorer icon
GuitarTabsExplorer icon

Log in

Songbook

  • Log in to add and see bookmarks

Last visited songs

    No songs visited yet...

St Anger1 by Metallica

Tabs

Guitars Dropped-C tuning (Strings on Chord diagramD MajorD)
(like all songs in "st. Anger" album, except "Invisible Kid"
(A#-dropped Chord diagramG#G#)
 and "The Unnamed Feeling"(C-dropped Chord diagramA#A#))

6=C 3=F
5=G 2=A
4=C 1=D

                           _____________________________
INTRO                        |1st time  | |2nd time
 P.M.____ ____ _______     ________ ____ _______     | |
-----------------------------------------------------------------| |-----------------
-----------------------------------------------------------------|o|-----------------
-----------------------------------------------------------------| |-----------------
-------------------------5-5-5-5-------------------------5-5-5-5-| |-----------------
-0-1-2-1-2-1-0-2-1-0-2-0-3-3-3-3-0-1-2-1-2-1-0-2-1-0-1-0-3-3-3-3-|o|-0-1-------------
-0-1-2-1-2-1-0-2-1-0-2-0---------0-1-2-1-2-1-0-2-1-0-1-0---------| |-0-1-------------


1st, 2nd, 3rd times
GTR I
 P.M.____ ____ _______     ________ ____ _______
-----------------------------------------------------------------| -3-
-----------------------------------------------------------------| T
-----------------------------------------------------------------| I
-------------------------5-5-5-5-------------------------5-5-5-5-| M
-0-1-2-1-2-1-0-2-1-0-2-0-3-3-3-3-0-1-2-1-2-1-0-2-1-0-1-0-3-3-3-3-| Chord diagramE MajorE
-0-1-2-1-2-1-0-2-1-0-2-0---------0-1-2-1-2-1-0-2-1-0-1-0---------| S


4th time
GTR I
 P.M.____ ____ ____ ____ ___     ________ ____ _______
-------------------------------------------------------------------------|
-------------------------------------------------------------------------|
-------------------------------------------------------------------------|
---------------------------------5-5-5-5-------------------------5-5-5-5-|
-0-1-2-1-2-1-0-2-1-0-2-1-0-2-1-0-3-3-3-3-0-1-2-1-2-1-0-2-1-0-1-0-3-3-3-3-|
-0-1-2-1-2-1-0-2-1-0-2-1-0-2-1-0---------0-1-2-1-2-1-0-2-1-0-1-0---------|
                                     |
GTR II                                  |
 (hits) x   x   x   x           x   x         |
-------------------------------------------------------------------------|
-------------------------------------------------------------------------|
-------------------------------------------------------------------------|
-------------------------------------------------------------------------|
---------2-1-0-2-1-0-2-1-0-2-1-0-----------------2-1-0-2-1-0-------------|
---------2-1-0-2-1-0-2-1-0-2-1-0-----------------2-1-0-2-1-0-------------|
GTR I
 P.M.____ ____ ________    ________ ____ _______
-----------------------------------------------------------------|
-----------------------------------------------------------------|
-----------------------------------------------------------------|
-------------------------5-5-5-5-------------------------5-5-5-5-|
-0-1-2-1-2-1-0-2-1-0-1-0-3-3-3-3-0-1-2-1-2-1-0-2-1-0-1-0-3-3-3-3-|
-0-1-2-1-2-1-0-2-1-0-1-0---------0-1-2-1-2-1-0-2-1-0-1-0---------|
                                 |
GTR II                              |
     x   x             x   x         |
-----------------------------------------------------------------|
-----------------------------------------------------------------|
-----------------------------------------------------------------|
-----------------------------------------------------------------|
---------2-1-0-2-1-0---------------------2-1-0-2-1-0-------------|
---------2-1-0-2-1-0---------------------2-1-0-2-1-0-------------|


GTR I
 P.M.____ ____ ____ ____ ___
-----------------------------------------|
-----------------------------------------|
-----------------------------------------|
---------------------------------5-5-5-5-|
-0-1-2-1-2-1-0-2-1-0-2-1-0-2-1-0-3-3-3-3-|
-0-1-2-1-2-1-0-2-1-0-2-1-0-2-1-0---------|
                     |
GTR II                  |
     x   x   x   x       |
-----------------------------------------|
-----------------------------------------|
-----------------------------------------|
-----------------------------------------|
---------2-1-0-2-1-0-2-1-0-2-1-0---------|
---------2-1-0-2-1-0-2-1-0-2-1-0---------|


ALL BAND
MAIN RIFF
-----------------------------------------------------------------| -4-
-----------------------------------------------------------------| T
-----------------------------------------------------------------| I
-------------------------5-5-5-5-------------------------5-5-5-5-| M
-0-1-2-1-2-1-0-2-1-0-2-0-3-3-3-3-0-1-2-1-2-1-0-2-1-0-1-0-3-3-3-3-| Chord diagramE MajorE
-0-1-2-1-2-1-0-2-1-0-2-0---------0-1-2-1-2-1-0-2-1-0-1-0---------| S


 x   x   x   x
-------------------------|
-------------------------|
-------------------------|
-------------------------|
-2-1-0-2-1-0-2-1-0-2-1-0-|
-2-1-0-2-1-0-2-1-0-2-1-0-|


VERSERIFF
acoustic

  ("St. Anger around my neck...)

GTR I

 Chord diagramD MajorD        Chord diagramC majorC   Chord diagramA#A#  Chord diagramA augmentedA
let ring...
------------------------------------|
---------3----3--------3------3---3-|
------2-----2--------2------2---2---|
-0--0-------------------------------|
------------------3------1----------|
------------------------------------|
                  |
GTR II               | -4-
let ring...             | T
------------------------------------| I
-------3---3(3)3--3---3--3---3(3)3--| M
-----2---2---2------2------2--------| Chord diagramE MajorE
-0----------------------------------| S
------------------3------1-----0----|
------------------------------------|
                  |
GTR III (played only 1st time)   |
----------2-------------------------|
-------3-----3------3------3-3---3--|
-----2------------------------------|
-0----------------------------------|
------------------3------1-----0----|
------------------------------------|


distortion on

 ("You flush it out, you flush it out...")
GTR I
------------------------------------------------------------------|
-1515151515151515151515151515151513131313131313131111111110101010-|
-141414141414141414141414141414141212121212121212101010109-9-9-9--|
------------------------------------------------------------------|
------------------------------------------------------------------| -4-
------------------------------------------------------------------| T
                                 | I
GTR II                              | M
 Chord diagramD MajorD                Chord diagramC majorC        Chord diagramA#A#   Chord diagramA augmentedA     | Chord diagramE MajorE
------------------------------------------------------------------| S
------------------------------------------------------------------|
------------------------------------------------------------------|
-7--------------7---7------------5--------------------------------|
-5--------------5---5------------3---------------8------7---------|
-0-----------------------------------------------8------7---------|


(hits)
 x       x x  x x   x        x   x     |
 Chord diagramD MajorD                Chord diagramC majorC        Chord diagramA#A#   Chord diagramA augmentedA     |
------------------------------------------------------------------| -2-
------------------------------------------------------------------| T
------------------------------------------------------------------| I
-0-------------------------------5--------------------------------| M
-0--------------0--0----0--0-----3---------------8------7---------| Chord diagramE MajorE
-0--------------0--0----0--0---------------------8------7---------| S



("Fuck it all and no regrets, i hit the lights and...")

 Chord diagramD MajorD                Chord diagramC majorC        Chord diagramA#A#   Chord diagramA augmentedA
------------------------------------------------------------------| -4-
------------------------------------------------------------------| T
------------------------------------------------------------------| I
-7-7-7-7-7-7-7-7-7-7-7-7-7-7-7-7-5-5-5-5-5-5-5-5------------------| M
-5-5-5-5-5-5-5-5-5-5-5-5-5-5-5-5-3-3-3-3-3-3-3-3-8-8-8-8-7-7-7-7--| Chord diagramE MajorE
-0-----------------------------------------------8-8-8-8-7-7-7-7--| S


("I feel my world shake, like an earth quake......")

------------------------------------------------------------------| -4-
------------------------------------------------------------------| T
------------------------------------------------------------------| I
-7-7-7-7-7-7-7-7-7-7-7-7-7-7-7-7-5-5-5-5-5-5-5-5------------------| M
-5-5-5-5-5-5-5-5-5-5-5-5-5-5-5-5-3-3-3-3-3-3-3-3-8-8-8-8-7-7-7-7--| Chord diagramE MajorE
-0-----------------------------------------------8-8-8-8-7-7-7-7--| S



 x       x x  x x  x x  x x
 Chord diagramD MajorD
-------------------------------------------------|
-------------------------------------------------|
-------------------------------------------------|
-7-----------------------------------------------|
-5--------------0--0----0--0----0--0----0--0-----|
-0--------------0--0----0--0----0--0----0--0-----|


 x
GTR I
 P.M.____ ____ ____ ____ ___
---------------------------------|
---------------------------------|
---------------------------------|
-------------------------5-5-5-5-|
-0-1-2-1-2-1-0-2-1-0-1-0-3-3-3-3-|
-0-1-2-1-2-1-0-2-1-0-1-0---------|


MAIN RIFF
-----------------------------------------------------------------| -4-
-----------------------------------------------------------------| T
-----------------------------------------------------------------| I
-------------------------5-5-5-5-------------------------5-5-5-5-| M
-0-1-2-1-2-1-0-2-1-0-2-0-3-3-3-3-0-1-2-1-2-1-0-2-1-0-1-0-3-3-3-3-| Chord diagramE MajorE
-0-1-2-1-2-1-0-2-1-0-2-0---------0-1-2-1-2-1-0-2-1-0-1-0---------| S


 x   x   x   x
-------------------------|
-------------------------|
-------------------------|
-------------------------|
-2-1-0-2-1-0-2-1-0-2-1-0-|
-2-1-0-2-1-0-2-1-0-2-1-0-|


VERSERIFF
acoustic

  ("St. Anger around my neck...)

GTR I

 Chord diagramD MajorD        Chord diagramC majorC   Chord diagramA#A#  Chord diagramA augmentedA
let ring...
------------------------------------|
---------3----3--------3------3---3-|
------2-----2--------2------2---2---|
-0--0-------------------------------|
------------------3------1----------|
------------------------------------|
                  |
GTR II               | -4-
let ring...             | T
------------------------------------| I
-------3---3(3)3--3---3--3---3(3)3--| M
-----2---2---2------2------2--------| Chord diagramE MajorE
-0----------------------------------| S
------------------3------1-----0----|
------------------------------------|
                  |
GTR III (played only 1st time)   |
----------2-------------------------|
-------3-----3------3------3-3---3--|
-----2------------------------------|
-0----------------------------------|
------------------3------1-----0----|
------------------------------------|


distortion on

 ("You flush it out, you flush it out...")
GTR I
------------------------------------------------------------------|
-1515151515151515151515151515151513131313131313131111111110101010-|
-141414141414141414141414141414141212121212121212101010109-9-9-9--|
------------------------------------------------------------------|
------------------------------------------------------------------| -4-
------------------------------------------------------------------| T
                                 | I
GTR II                              | M
 Chord diagramD MajorD                Chord diagramC majorC        Chord diagramA#A#   Chord diagramA augmentedA     | Chord diagramE MajorE
------------------------------------------------------------------| S
------------------------------------------------------------------|
------------------------------------------------------------------|
-7--------------7---7------------5--------------------------------|
-5--------------5---5------------3---------------8------7---------|
-0-----------------------------------------------8------7---------|


(hits)
 x       x x  x x   x        x   x     |
 Chord diagramD MajorD                Chord diagramC majorC        Chord diagramA#A#   Chord diagramA augmentedA     |
------------------------------------------------------------------| -2-
------------------------------------------------------------------| T
------------------------------------------------------------------| I
-0-------------------------------5--------------------------------| M
-0--------------0--0----0--0-----3---------------8------7---------| Chord diagramE MajorE
-0--------------0--0----0--0---------------------8------7---------| S



("Fuck it all and no regrets, i hit the lights and...")
 Chord diagramD MajorD                Chord diagramC majorC        Chord diagramA#A#   Chord diagramA augmentedA
------------------------------------------------------------------| -4-
------------------------------------------------------------------| T
------------------------------------------------------------------| I
-7-7-7-7-7-7-7-7-7-7-7-7-7-7-7-7-5-5-5-5-5-5-5-5------------------| M
-5-5-5-5-5-5-5-5-5-5-5-5-5-5-5-5-3-3-3-3-3-3-3-3-8-8-8-8-7-7-7-7--| Chord diagramE MajorE
-0-----------------------------------------------8-8-8-8-7-7-7-7--| S


("I feel my world shake, like an earth quake......")

------------------------------------------------------------------| -4-
------------------------------------------------------------------| T
------------------------------------------------------------------| I
-7-7-7-7-7-7-7-7-7-7-7-7-7-7-7-7-5-5-5-5-5-5-5-5------------------| M
-5-5-5-5-5-5-5-5-5-5-5-5-5-5-5-5-3-3-3-3-3-3-3-3-8-8-8-8-7-7-7-7--| Chord diagramE MajorE
-0-----------------------------------------------8-8-8-8-7-7-7-7--| S



 x       x x  x x  x x  x x   x
 Chord diagramD MajorD
-------------------------------------------------|
-------------------------------------------------|
-------------------------------------------------|
-7-----------------------------------------------|
-5--------------0--0----0--0----0--0----0--0-----|
-0--------------0--0----0--0----0--0----0--0-----|




INTRO
 P.M.____ ____ _______     ________ ____ _______
-----------------------------------------------------------------| -2-
-----------------------------------------------------------------| T
-----------------------------------------------------------------| I
-----------------------------------------------------------------| M
-0-1-2-1-2-1-0-2-1-0-2-0-3-3-3-3-0-1-2-1-2-1-0-2-1-0-1-0-3-3-3-3-| Chord diagramE MajorE
-0-1-2-1-2-1-0-2-1-0-2-0---------0-1-2-1-2-1-0-2-1-0-1-0---------| S



1st, 2nd, 3rd times
GTR I
 P.M.____ ____ _______     ________ ____ _______
-----------------------------------------------------------------| -3-
-----------------------------------------------------------------| T
-----------------------------------------------------------------| I
-------------------------5-5-5-5-------------------------5-5-5-5-| M
-0-1-2-1-2-1-0-2-1-0-2-0-3-3-3-3-0-1-2-1-2-1-0-2-1-0-1-0-3-3-3-3-| Chord diagramE MajorE
-0-1-2-1-2-1-0-2-1-0-2-0---------0-1-2-1-2-1-0-2-1-0-1-0---------| S


4th time
GTR I
 P.M.____ ____ ____ ____ ___     ________ ____ _______
-------------------------------------------------------------------------|
-------------------------------------------------------------------------|
-------------------------------------------------------------------------|
---------------------------------5-5-5-5-------------------------5-5-5-5-|
-0-1-2-1-2-1-0-2-1-0-2-1-0-2-1-0-3-3-3-3-0-1-2-1-2-1-0-2-1-0-1-0-3-3-3-3-|
-0-1-2-1-2-1-0-2-1-0-2-1-0-2-1-0---------0-1-2-1-2-1-0-2-1-0-1-0---------|
                                     |
GTR II                                  |
 (hits) x   x   x   x           x   x         |
-------------------------------------------------------------------------|
-------------------------------------------------------------------------|
-------------------------------------------------------------------------|
-------------------------------------------------------------------------|
---------2-1-0-2-1-0-2-1-0-2-1-0-----------------2-1-0-2-1-0-------------|
---------2-1-0-2-1-0-2-1-0-2-1-0-----------------2-1-0-2-1-0-------------|


GTR I
 P.M.____ ____ ________    ________ ____ _______
-----------------------------------------------------------------|
-----------------------------------------------------------------|
-----------------------------------------------------------------|
-------------------------5-5-5-5-------------------------5-5-5-5-|
-0-1-2-1-2-1-0-2-1-0-1-0-3-3-3-3-0-1-2-1-2-1-0-2-1-0-1-0-3-3-3-3-|
-0-1-2-1-2-1-0-2-1-0-1-0---------0-1-2-1-2-1-0-2-1-0-1-0---------|
                                 |
GTR II                              |
     x   x             x   x         |
-----------------------------------------------------------------|
-----------------------------------------------------------------|
-----------------------------------------------------------------|
-----------------------------------------------------------------|
---------2-1-0-2-1-0---------------------2-1-0-2-1-0-------------|
---------2-1-0-2-1-0---------------------2-1-0-2-1-0-------------|


GTR I
 P.M.____ ____ ____ ____ ___
-----------------------------------------|
-----------------------------------------|
-----------------------------------------|
---------------------------------5-5-5-5-|
-0-1-2-1-2-1-0-2-1-0-2-1-0-2-1-0-3-3-3-3-|
-0-1-2-1-2-1-0-2-1-0-2-1-0-2-1-0---------|
                     |
GTR II                  |
     x   x   x   x       |
-----------------------------------------|
-----------------------------------------|
-----------------------------------------|
-----------------------------------------|
---------2-1-0-2-1-0-2-1-0-2-1-0---------|
---------2-1-0-2-1-0-2-1-0-2-1-0---------|


ALL BAND
MAIN RIFF
-----------------------------------------------------------------| -4-
-----------------------------------------------------------------| T
-----------------------------------------------------------------| I
-------------------------5-5-5-5-------------------------5-5-5-5-| M
-0-1-2-1-2-1-0-2-1-0-2-0-3-3-3-3-0-1-2-1-2-1-0-2-1-0-1-0-3-3-3-3-| Chord diagramE MajorE
-0-1-2-1-2-1-0-2-1-0-2-0---------0-1-2-1-2-1-0-2-1-0-1-0---------| S


("And i want, my anger to be healthy...")
-----------------------------------------------------------------| -4-
-----------------------------------------------------------------| T
-----------------------------------------------------------------| I
-------------------------5-5-5-5-------------------------5-5-5-5-| M
-0-1-2-1-2-1-0-2-1-0-2-0-3-3-3-3-0-1-2-1-2-1-0-2-1-0-1-0-3-3-3-3-| Chord diagramE MajorE
-0-1-2-1-2-1-0-2-1-0-2-0---------0-1-2-1-2-1-0-2-1-0-1-0---------| S

("And i need, my anger not to control...")
-----------------------------------------------------------------| -4-
-----------------------------------------------------------------| T
-----------------------------------------------------------------| I
-------------------------5-5-5-5-------------------------5-5-5-5-| M
-0-1-2-1-2-1-0-2-1-0-2-0-3-3-3-3-0-1-2-1-2-1-0-2-1-0-1-0-3-3-3-3-| Chord diagramE MajorE
-0-1-2-1-2-1-0-2-1-0-2-0---------0-1-2-1-2-1-0-2-1-0-1-0---------| S


-----------------------------------------------------------------| -8-
-----------------------------------------------------------------| T
-----------------------------------------------------------------| I
-------------------------5-5-5-5-------------------------5-5-5-5-| M
-0-1-2-1-2-1-0-2-1-0-2-0-3-3-3-3-0-1-2-1-2-1-0-2-1-0-1-0-3-3-3-3-| Chord diagramE MajorE
-0-1-2-1-2-1-0-2-1-0-2-0---------0-1-2-1-2-1-0-2-1-0-1-0---------| S


("Set me freeee!!....")
-----------------------------------------------------------------| -4-
-----------------------------------------------------------------| T
-----------------------------------------------------------------| I
-------------------------5-5-5-5-------------------------5-5-5-5-| M
-0-1-2-1-2-1-0-2-1-0-2-0-3-3-3-3-0-1-2-1-2-1-0-2-1-0-1-0-3-3-3-3-| Chord diagramE MajorE
-0-1-2-1-2-1-0-2-1-0-2-0---------0-1-2-1-2-1-0-2-1-0-1-0---------| S


(hits)
 x   x   x   x
-------------------------|
-------------------------|
-------------------------|
-------------------------|
-2-1-0-2-1-0-2-1-0-2-1-0-|
-2-1-0-2-1-0-2-1-0-2-1-0-|

("Fuck it all and no regrets, i hit the lights and...")
 Chord diagramD MajorD                Chord diagramC majorC        Chord diagramA#A#   Chord diagramA augmentedA
------------------------------------------------------------------| -4-
------------------------------------------------------------------| T
------------------------------------------------------------------| I
-7-7-7-7-7-7-7-7-7-7-7-7-7-7-7-7-5-5-5-5-5-5-5-5------------------| M
-5-5-5-5-5-5-5-5-5-5-5-5-5-5-5-5-3-3-3-3-3-3-3-3-8-8-8-8-7-7-7-7--| Chord diagramE MajorE
-0-----------------------------------------------8-8-8-8-7-7-7-7--| S

("I feel my world shake, like an earth quake......")
 Chord diagramD MajorD                Chord diagramC majorC        Chord diagramA#A#   Chord diagramA augmentedA
------------------------------------------------------------------| -2-
------------------------------------------------------------------| T
------------------------------------------------------------------| I
-7-7-7-7-7-7-7-7-7-7-7-7-7-7-7-7-5-5-5-5-5-5-5-5------------------| M
-5-5-5-5-5-5-5-5-5-5-5-5-5-5-5-5-3-3-3-3-3-3-3-3-8-8-8-8-7-7-7-7--| Chord diagramE MajorE
-0-----------------------------------------------8-8-8-8-7-7-7-7--| S

("I madly anger with you...")
 Chord diagramD MajorD                Chord diagramC majorC        Chord diagramA#A#   Chord diagramA augmentedA
------------------------------------------------------------------| -4-
------------------------------------------------------------------| T
------------------------------------------------------------------| I
-7-7-7-7-7-7-7-7-7-7-7-7-7-7-7-7-5-5-5-5-5-5-5-5------------------| M
-5-5-5-5-5-5-5-5-5-5-5-5-5-5-5-5-3-3-3-3-3-3-3-3-8-8-8-8-7-7-7-7--| Chord diagramE MajorE
-0-----------------------------------------------8-8-8-8-7-7-7-7--| S


 x       x x  x x  x x  x x
 Chord diagramD MajorD
-------------------------------------------------|
-------------------------------------------------|
-------------------------------------------------|
-7-----------------------------------------------|
-5--------------0--0----0--0----0--0----0--0-----|
-0--------------0--0----0--0----0--0----0--0-----|


 x                x
GTR I
 P.M.____ ____ ____ ____ ___
-------------------------------------|
-------------------------------------|
-------------------------------------|	THE
-------------------------5-5-5-5-0---|	END
-0-1-2-1-2-1-0-2-1-0-1-0-3-3-3-3-0---|
-0-1-2-1-2-1-0-2-1-0-1-0---------0---|




                    TABBED BY
			   T Chord diagramE MajorE R O  S Chord diagramA augmentedA I K K O N Chord diagramE MajorE N

                   contact me to:
		     t s s l a y e r @ l u u k k u . c o m
             s t - a n g e r @ l u u k k u . c o m

Other versions of St Anger1

Alternative guitar chords and tabs for St anger by Metallica

VersionType
St angerChords
St angerTabs
St anger2Tabs
St anger albumTabs

[ Privacy | About us ]

Welcome to the guitar community

Why join and log in?
- Get songbook with favourite songs
- Get custom made front page
- Submit chords and tabs
- Submit guitar-cover videos
- Get a lot of thumbs up for your work

Songbook

Last visited songs

Site
Home
Search
Community
Submit chords

Video

No video for this page. Check out how you can submit guitar-cover videos here

Search tabs and chords

Browse by artist

A B C D E F G H I J K L M N O P Q R S T U V W X Y Z #


Menu

Search

Video

Bookmark

Login