Log in

One click and you are in

Login with Facebook Login with Google

Why sign up and log in

Guitar Tabs Explorer
Metallica tabs for Orion1

Guitar tabs with lyrics

i know this is 100% right so have a good one

   medium rock= 128
                               play 8 times
    e---------------------------------
    b---------------------------------  intro
    g-------------4-------------------
    d----------------------4----------
    a--7-(7)------5--------6----------
    e--0-(0)--------------------------

     ryth fig 1                  play 6 times
    e---------------------------------------------
    b---------------------------------------------
    g---------------------------------------------
    d-5-------5-------5-----4-----------5--------5
    a-7-------7-------7-----7-----------7--------7
    e---0--0----0--0-----0------0--0-------0--0---
        ....P.M ....P.M  .P.M   ....P.M    ....P.M
    e--------------------------------------------
    b--------------------------------------------
    g--------------------------------------------
    d----4--------4--------4--4--4--------4------
    a----5--------5--------5--5--6--------6------
    e-0-----7--7-----7--7-----------7--7-----7--7
     P.M    ....P.M  ....P.M        ....P.M  ....
    e--------
    b--------
    g--------
    d---4---4
    a---6---6
    e--------

   gtr 1 ryth fig 2 part 1
    e---------------------------------
    b --------------------------------
    g---------2----------4----------5-
    d--2-2-2-2----2-2-2-2----2-2-2-2--
    a---------------------------------
    e---------------------------------
    still gtr 1 part 2
    e--------------------------------------
    b--------------------------------------
    g-------------------------------------5
    d--2-2-2-2-2---2-2-3---3-3-2---2-2-2-2-
    a--------------------------------------
    e--------------------------------------
    again still gtr 1

    e-----------------------
    b-----------------------
    g----------4-----------2
    d--2-2-2-2------2-2-2-2-  reapeat part 2
    a-----------------------
    e-----------------------
     both gtrs  ryth fig 3
    e-------------------------------------
    b-------------------------------------
    g------------2-----------4-----------5
    d------------2-----------4-----------5
    a------------0-----------2-----------3
    e--0---0--0------0-0-0-0-----0-0-0-0--
      .........p.m   .......p.m ........p.m
       e--------------------------------------
       b--------------------------------------
       g--------------------------------------
       d--------------------------------------
       a--------------------------------------       e--0-0-0-0-0---0-0--1---1-1-0----0---0-0
         ............................p.m
      part 2 above

    e-------------------------
    b-------------------------
    g--3----------4----------2
    d--3----------4----------2   repeat part 2
    a--5----------2----------0
    e------0-0-0-0----0-0-0-0-

   repeat ryth fig 1


then after rythym 2


   e---------------------------------
   b --------------------------------
   g---------------------------------
   d----4--5--4----4--4--5--4--------
   a------------7-------------7---(7)
   e---------------------------------
          h  p         h   p

     do twice
   e-----------------------------------------
   b-----------------------------------------
   g-----------------------------------------
   d----4--5--4----4--4--5--4---------5--5-4-
   a-----------7-------------7----(7)-------5
   e-----------------------------------------
         h   p          h  p
   e--------------
   b--------------
   g--------------
   d----5--5--4--4
   a--------------
   e--------------

    then the solo

   e----------------------------------------------
   b----------------------------------------------
   g----------------------------------------------
   d----------------------------------------------
   a---2/5---5/7---7/9---9/12---12/14---14--14--14
   e----------------------------------------------

     bend                                h
e------------------------------------------------
b------------------------------------------------
g--12--14--(14)--14--14--12--12--11-11-11-12--(12)
d------------------------------------------------
a------------------------------------------------
e------------------------------------------------

                       bend 14 only
e---------------------------------------------
b------------------15---15------------------12
g--11----------12-------14]---14]-14----14----
d----12---------------------------------------
a---------------------------------------------
e---------------------------------------------
                                ]
                            bend]

e-------------------------------------12
b----15]--15-15--15]--15-15-15]----15---
g---------------------------------------
d---------------------------------------
a---------------------------------------
e---------------------------------------


                         p   p
e---15-14-12-15-14-12-15--14--12-15-14-12-15--14-12
b-------------------------------------------------
g-------------------------------------------------
d-------------------------------------------------
a-------------------------------------------------
e-------------------------------------------------

                                              p
e-----17]------17]-----17]--17-------------------
b------------------------------17]----17---17--15
g------------------------------------------------
d------------------------------------------------
a------------------------------------------------
e------------------------------------------------
                           p
e-------------------------------------------
b------15---17]--(17)----17--15-----15------
g---14-------------------------16---------16
d-------------------------------------------
a-------------------------------------------
e-------------------------------------------


e-------------------------------------------------
b------15--19-----15--19----15--19----15--19---15-
g---16---------16--------16--------16--------16---
d-------------------------------------------------
a-------------------------------------------------
e-------------------------------------------------


e---17]----17]--17-------14---15---17---15---14-15
b-------------------------------------------------
g-------------------------------------------------
d-------------------------------------------------
a-------------------------------------------------
e-------------------------------------------------

      h   h   h   h   h   h  h   h  h  h  h  h
e---14--15--12--14--10--12--8--10--7--8--5--7--3--
b-------------------------------------------------
g-------------------------------------------------
d-------------------------------------------------
a-------------------------------------------------
e-------------------------------------------------
    h  h  h          p
e--5--2--3--2-------3--2
b-----------------------
g-----------------------
d-----------------------
a-----------------------
e-----------------------
                      p
e---------------------------------------
b---3-----3--5]---5--5--3-----3---2----3
g------4------------------4-------------
d---------------------------------------
a---------------------------------------
e---------------------------------------
     h  p h  p  h  p  h  p  h p
e------------------------------------
b------------------------------------
g---4--6-4--6--4--6--4--6--4-6-4---(4)
d------------------------------------
a------------------------------------
e------------------------------------

rythym during solo
                         2 times
e-------------------------------
b-------------------------------
g---4---4---4-------------1-----
d---4---4---4-------------2-----
a---2---2---2---2--2--2---2----0
e-------------------------------
                .......p.m

e-------------------------------
b-------------------------------
g-------------------------------
d---4---4---4---------------4---
a---0---0---0---0--0--0-----0---
e------------------------------0

e-----------------------------
b-----------------------------
g-----------------------------
d-----------------------2-----
a--4---4---4------------0----0
e--2---2---2---2--2--2--------

e----------------------------------
b----------------------------------
g----------------------------------
d---4---4---4---------------------2
a---4---4---4------------2---2----2
e---2---2---2---2--2--2--0---0----0

e
b
g
d------3----3--3---2
a------2----2--2---2
e---0--0----0--0---0

   tabing this was hell

Other versions of Orion1

OrionTabs
Orion (Ver. 2)Tabs
Orion (Ver. 3)Tabs
Orion (Ver. 4)Tabs

Almost there ...

Sign in to get your own page with links to favourite songs and more. You are just one click away...

Login with Facebook Login with Google