Log in

One click and you are in

Login with Facebook Login with Google

Why sign up and log in

Guitar Tabs Explorer
Metallica tabs for Imperial march

Guitar tabs

Metallica
Imeprial March


Tuning - A chord diagramD MajorD A chord diagramA augmentedA A chord diagramFF A chord diagramE MajorE A chord diagramG+G A chord diagramD MajorD

. - palm mute
h - hammer on
p - pull off
/ - slide
Riff A chord diagramA augmentedA
D-------------------------|-------------------------|
A-------------------------|-------------------------|
F-------------------------|-------------------------|
E------------4------------|-8-8-8-8-8--7-4------4---|
G-6-6-6-6-6--2-2-6--2-2-6-|-6-6-6-6-6--5-2-5--2-2-6-|
D-4-4-4-4-4--0---4--0---4-|----------------3--0---4-|
     . . .		     . . .


Riff A chord diagramBB
D--------------------------------------------------------------|
A--------------------------------------------------------------|
F--------------------------------------------------------------|
E-13-----13--12--11-10-9-10-----7-6-5-4-3-4---------4------4---|
G-11-6-6-11--10---9--8-7--8--7--5-4-3-2-1-2--2-5--2-2-6--2-2-6-|
D----4-4---------------------5---------------0-3--0---4--0---4-|
      . .


NOTE: play all both riffs twice! :)

Tabbed by Milen Vichev! Any comments or anything else send to
red_bad_fox@abv.bg !

Die by my hand
I Creep across the land
Killing first born man

Have fun !!!

Almost there ...

Sign in to get your own page with links to favourite songs and more. You are just one click away...

Login with Facebook Login with Google