Search tabs and chords

Search for song, artist or band

Log in

One click and you are in

Login with Facebook Login with Google

Why sign up and log in

Guitar Tabs Explorer
Mejibray bass tabs for Sadisgate

Bass tabs

00:02
F|------------|
C|------------|
G|------------|
C|-0~~-0~~----|

   S  S  S P S PP             |R
F|-------------77-----------| |E
C|---------0----------------| |P 3
G|--------------------------| |E X
C|-0--0--0---x--------------| |A
                              |T
   P P P P P P
F|-2-0-2-0-1-2---------|
C|---------------------|
G|---------------------|
C|---------------------|

   P P P P P P P P P P P                          |
F|-------2---------------| |-----------|          |R
C|-7-5-7---3-5-2-3-7-5-7-| |-0235-0235-|          |E
G|-----------------------| |-----------|          |P
C|-----------------------| |-----------|          |E
                                                  |A
   P P P P P P P P                                |T
F|-------2-------------| |-------------------6--| |
C|-7-5-7---3-5-2-3-----| |-0235-0235-02350-689--| |2
G|---------------------| |----------------------| |X
C|---------------------| |----------------------| |

00:35

   S  S  S PP S  S  S PP  |
F|----------------------| |
C|---------22---------22| |REPEAT 4X
G|----------------------| |
C|-0--0--0----0--0--0---| |

00:51

   P P P P P P P P P P P                          |
F|-------2---------------| |-----------|          |R
C|-7-5-7---3-5-2-3-7-5-7-| |-0235-0235-|          |E
G|-----------------------| |-----------|          |P
C|-----------------------| |-----------|          |E
                                                  |A
   P P P P P P P P                                |T
F|-------2-------------| |-------------------6--| |
C|-7-5-7---3-5-2-3-----| |-0235-0235-02350-689--| |2
G|---------------------| |----------------------| |X
G|---------------------| |----------------------| |

01:07
                          P P P P P P
F|------------------------2-0-2-0-1-2-|
C|------------------------------------|
G|55555555(4X)------------------------|
C|------------00000000(3X)------------|


01:23
F|----------------------------------------------------------|
C|----------------------------------------------------------|
G|----------------1-1-111-1-1-111---------------------------|
C|0-0-000-0-0-000-----------------3-3-333-3-3-333-7-7-777-7-|

   P P P P P P
F|-2-0-2-0-1-2---------|
C|---------------------|
G|---------------------|
C|---------------------|

01:39
                    PP                   PP     |
F|--------------------------------------------| |
C|------------------22-------------------22---| |REPEAT 2x
G|--------------------------------------------| |
C|0-0-0-0-0-0-0-0-0----0-0-0-0-0-0-0-0-0------| |

01:56

   P P P P P P P P P P P                          |
F|-------2---------------| |-----------|          |R
C|-7-5-7---3-5-2-3-7-5-7-| |-0235-0235-|          |E
G|-----------------------| |-----------|          |P
C|-----------------------| |-----------|          |E
                                                  |A
   P P P P P P P P                                |T
F|-------2-------------| |-------------------6--| |
C|-7-5-7---3-5-2-3-----| |-0235-0235-02350-689--| |2
G|---------------------| |----------------------| |X
G|---------------------| |----------------------| |

02:12

   S  S  S S P S  S  S S  P |
F|------------------------| |
C|-----------2-----------2| |REPEAT 3X
G|------------------------| |
C|-0--0--0-0---0--0--0-0--| |

   S  S  S S P  P P P P P P
F|--------------2-0-2-0-1-2|
C|-----------2-------------|
G|-------------------------|
C|-0--0--0-0---------------|

02:28
F|----------------------------------------------------------| |
C|----------------------------------------------------------| |R
G|----------------1-1-111-1-1-111---------------------------| |E
C|0-0-000-0-0-000-----------------3-3-333-3-3-333-7-7-777-7-| |P
                                                              |E
   P P P P P P                                                |A
F|-2-0-2-0-1-2---------|                                      |T
C|---------------------|                                      |
G|---------------------|                                      |4
C|---------------------|                                      |X


03:33

   P P P P P P P P P P P                          |
F|-------2---------------| |-----------|          |R
C|-7-5-7---3-5-2-3-7-5-7-| |-0235-0235-|          |E
G|-----------------------| |-----------|          |P
C|-----------------------| |-----------|          |E
                                                  |A
   P P P P P P P P                                |T
F|-------2-------------| |-------------------6--| |
C|-7-5-7---3-5-2-3-----| |-0235-0235-02350-689--| |2
G|---------------------| |----------------------| |X
G|---------------------| |----------------------| |

Almost there ...

Sign in to get your own page with links to favourite songs and more. You are just one click away...

Login with Facebook Login with Google