Guitar Tabs Explorer
Megadeth guitar tabs for Sudden death

Sudden Death tab


Be the first to rate

Sudden Death tab by Megadeth

Guitar tabs with lyrics

Print

2010 single

Amazing Song, unfortuantly, i don't have the lead guitar parts :[
but i have everything else, so here you go

tabs by Andy32296

I suggest that you listen to the song, for timing

+ = Palm Mute

Intro Rhythm
|---------------------------------------------------------------------|
|---------------------------------------------------------------------|
|---------------------------------------------------------------------|
|--------------------3~~----------------------------------------------|x4
|--2~~~~-------------1~~----------------------------------------------|
|--0~~~~--------------------------------------------------------------|

|------------------------------------------------------------------------|
|------------------------------------------------------------------------|
|------------------------------------------------------------------------|
|----------2-----------------2-------------------3-----------------------|x4
|-2-----------------2--------------------1-----------------3-333-3-333---|
|--0-0-0-0---0-0-0-0--0-0-0-0---0-0-0-0-0--0-0-0---0-0-0-0-1-111-1-111---|
   + + + +   + + + +  + + + +   + + + + +  + + +   + + + + + +++ + +++

After-intro riff (0:54)
|------------------------------------|
|------------------------------------|
|------------------------------------|
|------------------------------------|x4
|------------------------------------|
|-0000-0000-00000000-0000-00000000---|



I STRONGLY SUGGEST YOU LISTEN FOR TIMING IN THIS NEXT PART
Verse riff (1:06)
|---------------------------------------------------------|
|---------------------------------------------------------|
|---------------------------------------------------------|
|---------------------------------------------------------|x3
|---------------------------------------------------------|
|-0000-0000-00000000-0000-00000000-0000-00000000-0000-0000|
  ++++ ++++ ++++++++ ++++ ++++++++ ++++ ++++++++ ++++ ++++
His evil Highness born from disaster...


|---------------------------------------------------------|
|---------------------------------------------------------|
|---------------------------------------------------------|
|---------------------------------------------------------|x2
|---------------------------------------------------------|
|-1111-1111-11111111-1111-11111111-0000-00000000-0000-0000|
  ++++ ++++ ++++++++ ++++ ++++++++ ++++ ++++++++ ++++ ++++
A chord diagramAA blitzkrieg raining down evil...


verse ending
---------------|
---------------|
---------------|
---------------|
-10------7-----|
----8~------5~-|

Chorus riff
|---------------------------------------------------------|
|---------------------------------------------------------|
|-------0-------------0-------------0------------0--------|
|----2-----2-------2-----2--------2----2------2------2----|(continued)
|--2--2--2---2---2--2---2--2----3--3--3--3--3---3--3---3--|
|0------------0---------------3-----------3---------------|
 + + ++ ++ + ++  + ++ + ++ +  + + +++ ++ ++ + + ++ + + +
While alone and left abandoned...


|-------------------------------------------------|
|-------------------------------------------------|
|------0----------0------------0------------------|
|----2----2-----2----2-------4----4-----44444444--|
|--4--4-4--4--4--4--4--4---5--5--5--5---66666666--|
|4----------4------------5-----------5--66666666--|
 + + ++++ +++ + +++ ++ + + + +++ ++ ++  ++++++++
All your angels will ignore you...

|------------------------------------------------------------------------|
|-----1~------1~-----1~------1~-----1~------1~---------------------------|
|--2--------2------2------2-------2------2-------------------------------|
|-2-2-----2--2----2-2----2-2-----2-2----2-2------------------------------|
|0-------0---------------------------------------------------------------|
|----------------4------4------3-------3--------7-7-7-7-5-5-5-5-3-3-3-3-2|
 ++++    ++ ++   ++++   ++++   + +++   ++++     + + + + + + + + + + + + +
Even still you
keep on fighting

--------------------------------|
--------------------------------|
--------------------------------|
--------------------------------|
--------------------------------|
-8-7-8-7-5-5-5-5-3-3-3-3-2-2-2-2|
 + + + + + + + + + + + + + + + +
Your sudden death from above!!

*REPEATS VERSE RIFFS (for help, listen to song for timing)

riff under solo (2:39)
|---------------------------------------------------|
|---------------------------------------------------|
|--4-5-4--2-4--4-5-4--2-4--7-7-7--2-2-2--4-5-4--2-4-|
|--2-3-2--0-2--2-3-2--0-2--5-5-5--0-0-0--2-3-2--0-2-|x2
|---------------------------------------------------|
|---------------------------------------------------|


(2:54)Repeat until 4:06
|---------------------------------------------------------|
|---------------------------------------------------------|
|---------------------------------------------------------|
|---------------------------------------------------------|
|---------------------------------------------------------|
|-0000-0000-00000000-0000-00000000-1111-11111111-1111-1111|

|---------------------------------------------------------|
|---------------------------------------------------------|
|---------------------------------------------------------|
|---------------------------------------------------------|
|---------------------------------------------------------|
|-2222-2222-22222222-2222-22222222-3333-33333333-4444-4444|


4:06 (Repeat all twice)
|---------------------------------------------------------|
|---------------------------------------------------------|
|---------------------------------------------------------|
|---------------------------------------------------------|
|-7777-7777-77777777-7777-77777777-8888-88888888-8888-8888|
|---------------------------------------------------------|

|---------------------------------------------------------|
|---------------------------------------------------------|
|---------------------------------------------------------|
|----------------------------------5555-55555555-6666-6666|
|-9999-9999-99999999-9999-99999999------------------------|
|---------------------------------------------------------|

and end it off with the chorus riff


Thank You For Reading this awesome song tabs, i hope you learned something
Metallica
Slayer
Megadeth

Other versions of Sudden Death

Sudden death (Ver. 2)Tabs

Comment this song and these guitar tabs

Do you have corrections, comments on the guitar tabs, thoughts about the song or a message to the author? Write them below.