Search tabs and chords

Search for song, artist or band

Log in

One click and you are in

Login with Facebook Login with Google

Why sign up and log in

Guitar Tabs Explorer
Megadeth guitar tabs for Last rites-loved to deth

Guitar tabs

E|-17-15-17-13-17-12-17----17-12-17-13-17----17----|
B|----------------------15----------------15----14-|
G|-------------------------------------------------|
D|-------------------------------------------------|
A|-------------------------------------------------|
E|-------------------------------------------------|

E|-17----17-12-17----17----17----17----17----17-|
B|----15----------------------14----15----17----|
G|----------------14----16----------------------|
D|----------------------------------------------|
A|----------------------------------------------|
E|----------------------------------------------|

E|-18-17-18-15-18-13-18-12-18-13-18-15-18----18-|
B|----------------------------------------13----|
G|----------------------------------------------|
D|----------------------------------------------|
A|----------------------------------------------|
E|----------------------------------------------|

E|-17-15-17-13-17-12-17----17-12-17-13-17----17-|
B|----------------------15----------------13----|
G|----------------------------------------------|
D|----------------------------------------------|
A|----------------------------------------------|
E|----------------------------------------------|

E|-15-13-15-12-15-10-15----15-10-15-12-15-13-15-|
B|----------------------14----------------------|
G|----------------------------------------------|
D|----------------------------------------------|
A|----------------------------------------------|
E|----------------------------------------------|

E|-------17----------17----------15----------15----|
B|-15----------15----------14----------14----------|
G|----14----14----14----14----14----14----14----14-|
D|-------------------------------------------------|
A|-------------------------------------------------|
E|-------------------------------------------------|

E|--------------------------------------------------------|
B|--------------------------------------------------------|
G|-3~--2h3p2p0-5t3p2p0-7t3p2p0-10t3p2p0-12t3p2p0-15t3p2p0-|
D|--------------------------------------------------------|
A|--------------------------------------------------------|
E|--------------------------------------------------------|

E|-----------------------------------|
B|-----------------------------------|
G|-12t3p2p0-10t3p2p0-7t3p2p0-5t3p2p0-|
D|-----------------------------------|
A|-----------------------------------|
E|-----------------------------------|

E|-------------------------------------------------|
B|---------------------------------------(15)--|
G|-------------------------------------------------|
D|-----------------------0-------------------------|
A|-/5~----8----7----5----0-------------------------|
E|--------6----5----3------------------------------|

---------------------------------------------------

Live version:
---------------------------------------------------

E|-----|
B|-----|
G|-----|
D|--0--|
A|--0--|
E|-----|

E|--------------------------------------------------------------|
B|-t22t20---t18---t17---t15---t17---t18---t15---t14---t15---t17-|
G|--------------------------------------------------------------|
D|--------------------------------------------------------------|
A|-h12p10h12p10h12p10h12p10h12p10h12p10h12p10h12p10h12p10h12p10-|
E|--------------------------------------------------------------|

E|-----------------------------------|
B|----------------t14---t15---t17----|
G|-----t14--t16----------------------|
D|-----------------------------------|
A|-h12p10h12p10h12p10h12p10h12p10h12-|
E|-----------------------------------|

E|-----------------------------------------------------------------|
B|-t22t20---t18---t17---t15---t17---t18---t15---t14---t15---t17----|
G|-----------------------------------------------------------------|
D|-----------------------------------------------------------------|
A|-h12p10h12p10h12p10h12p10h12p10h12p10h12p10h12p10h12p10h12p10h12-|
E|-----------------------------------------------------------------|

E|-----------------------------------|
B|----------------t14---t15---t17----|
G|-----t14--t16----------------------|
D|-----------------------------------|
A|-h12p10h12p10h12p10h12p10h12p10h12-|
E|-----------------------------------|

E|-----------------------------------------------|
B|-t23t22---t20---t18---t17---t18---t20----------|
G|----------------------------------------t17----|
D|-----------------------------------------------|
A|-h13p12h13p12h13p12h13p12h13p12h13p12h13p12h13-|
E|-----------------------------------------------|

E|-----------------------------------------------|
B|-t22t20---t18---t17---t15---t17---t18----------|
G|----------------------------------------t17----|
D|-----------------------------------------------|
A|-h12p10h12p10h12p10h12p10h12p10h12p10h12p10h12-|
E|-----------------------------------------------|

E|----------------------------------------|
B|-t20t18--t17--t15--t14--t15--t17--t18---|
G|----------------------------------------|
D|----------------------------------------|
A|-h10p8h10p8h10p8h10p8h10p8h10p8h10p8h10-|
E|----------------------------------------|

E|-------17----------17----------15----------15----------|
B|-15----------15----------14----------14----------------|
G|----14----14----14----14----14----14----14----14--15~\-|
D|--------------------------------------------------15~\-|
A|-------------------------------------------------------|
E|-------------------------------------------------------|

E|--------------------------------------------------------|
B|--------------------------------------------------------|
G|-3~--2h3p2p0-5t3p2p0-7t3p2p0-10t3p2p0-12t3p2p0-15t3p2p0-|
D|--------------------------------------------------------|
A|--------------------------------------------------------|
E|--------------------------------------------------------|

E|-----------------------------------|
B|-----------------------------------|
G|-12t3p2p0-10t3p2p0-7t3p2p0-5t3p2p0-|
D|-----------------------------------|
A|-----------------------------------|
E|-----------------------------------|

E|--------------------------------------|
B|-----------------------15---------|
G|-----------------------14-------------|
D|--------------------------------------|
A|-/5~----------------------------------|
E|--------3----1----0-------------------|

---------------------------------------------------

Loved to Deth:


Riff 1                              x3
E|-----------------------------------|
B|-----------------------------------|
G|-----------------------------------|
D|-------7p5---5h7-------8p7p5---5h8-|
A|-0-0-0-----7-----0-0-0-------8-----|
E|-----------------------------------|
   * * *           * * *
E|---------------------------------|
B|---------------------------------|
G|-----------------7p5-8p5---------|
D|-------7p5---5h7---------7p5-8p5-|
A|-0-0-0-----7---------------------|
E|---------------------------------|
   * * *

Guitar 2 comes in with these chords:
                        x2
E|-----------------------|
B|-----------------------|
G|-----------------------|
D|-----------------------|
A|-5-7----8----5-7----8--|
E|-3-5----6----3-5----6--|



Play Riff 1   "Whoa!"



Riff 2
E|---------------------------|
B|---------------------------|
G|---------------------------|
D|-------------8-----------8-|
A|-7-7--7-8-8--6-8-7-5-5-5-6-|
E|-5-5--5-6-6----6-5-3-3-3---|
   * *  * * *    * * * * *
   "Your bodies empty..."


Riff 3
E|---------------------------|
B|---------------------------|
G|---------------------------|
D|---------------------------|
A|-2h4---------2-2-4-4/5-4---|
E|-0h2-2p0-2p0-0-0-2-2/3-2-0-|



Play Riff 2
Play Riff 3  "...death..."
Play Riff 1
Play Riff 2  "If I can't have you..."
Play Riff 3  "...hell..."
Play Riff 2
Play Riff 3  "...death..."


Riff 4
E|----------------------------------|
B|----------------------------------|
G|----------------------------------|
D|---------------------------2--1-0-|
A|-7--6--5--4--3-2--5--4--3--2--1-0-|
E|-5--4--3--2--1-0--3--2--1---------|
   "I...         ...loved you..."
E|-----------------------------------|
B|-----------------------------------|
G|-----------------------------------|
D|-------7p5---5h7-------8p7p5---5h8-|
A|-0-0-0-----7-----0-0-0-------8-----|
E|-----------------------------------|
   * * *           * * *
  "...to deth."
E|---------------------------------|
B|---------------------------------|
G|-----------------7p5-8p5---------|
D|-------7p5---5h7---------7p5-8p5-|
A|-0-0-0-----7---------------------|
E|---------------------------------|
   * * *
E|----------------------------------|
B|----------------------------------|
G|----------------------------------|
D|---------------------------2--1-0-|
A|-7--6--5--4--3-2--5--4--3--2--1-0-|
E|-5--4--3--2--1-0--3--2--1---------|
   "I...         ...loved you..."
E|-----------------------------------|
B|-----------------------------------|
G|-----------------------------------|
D|-------7p5---5h7-------8p7p5---5h8-|
A|-0-0-0-----7-----0-0-0-------8-----|
E|-----------------------------------|
   * * *           * * *
  "...to deth."
E|---------------------------------|
B|---------------------------------|
G|-----------------7p5-8p5---------|
D|-------7p5---5h7---------7p5-8p5-|
A|-0-0-0-----7---------------------|
E|---------------------------------|
   * * *


Play Riff 2  Solo Rhythm
Play Riff 3  Solo Rhythm
Play Riff 2  Solo Rhythm
Play Riff 3  Solo Rhythm


Riff 4a (Solo Rhythm)
E|----------------------------------|
B|----------------------------------|
G|----------------------------------|
D|---------------------------2--1-0-|
A|-7--6--5--4--3-2--5--4--3--2--1-0-|
E|-5--4--3--2--1-0--3--2--1---------|

E|---------------------------|
B|---------------------------|
G|---------------------------|
D|-------------8-----------8-|
A|-7-7--7-8-8--6-8-7-5-5-5-6-|
E|-5-5--5-6-6----6-5-3-3-3---|
   * *  * * *    * * * * *
E|---------------------------|
B|---------------------------|
G|---------------------------|
D|-------------8-----------8-|
A|-7-7--7-8-8--6-8-7-5-5-5-6-|
E|-5-5--5-6-6----6-5-3-3-3---|
   * *  * * *    * * * * *
E|----------------------------------|
B|----------------------------------|
G|----------------------------------|
D|---------------------------2--1-0-|
A|-7--6--5--4--3-2--5--4--3--2--1-0-|
E|-5--4--3--2--1-0--3--2--1---------|

E|-----------------------------------|
B|-----------------------------------|
G|-----------------------------------|
D|-------7p5---5h7-------8p7p5---5h8-|
A|-0-0-0-----7-----0-0-0-------8-----|
E|-----------------------------------|
   * * *           * * *
E|---------------------------------|
B|---------------------------------|
G|-----------------7p5-8p5---------|
D|-------7p5---5h7---------7p5-8p5-|
A|-0-0-0-----7---------------------|
E|---------------------------------|
   * * *


Solo (Mustaine)
E|-----------------------------------|
B|-20------20---------20-------------|
G|-19b21---19b21------19b21-17---17--|
D|-----------------------------------|
A|-----------------------------------|
E|-----------------------------------|

E|-20-22b24--22b24--22b24-22b24--22b24--(24)r22-|
B|----------------------------------------------|
G|----------------------------------------------|
D|----------------------------------------------|
A|----------------------------------------------|
E|----------------------------------------------|

E|-20-23-20----20-------------------------|
B|----------22----22-22-20b22----20b22-22-|
G|----------------------------21----------|
D|----------------------------------------|
A|----------------------------------------|
E|----------------------------------------|

E|-----------------------------------------------|
B|-20b22----20b22-------------17-19--17-19-20-19-|
G|-------21-------21-20-19-17--------------------|
D|-----------------------------------------------|
A|-----------------------------------------------|
E|-----------------------------------------------|

E|-----------------------------------------------------------|
B|-17--------------------------------------------------------|
G|----19-19b20-19--17-19-20--19-17-19--17--------------------|
D|----------------------------------------19b20----(20)r19\--|
A|-----------------------------------------------------------|
E|-----------------------------------------------------------|

E|-------------------------------------------------|
B|-------------------------------------------------|
G|-------------------------------------------------|
D|-10-10-12b13-13b14--14b15-17b19--17b19p16-17-16--|
A|-------------------------------------------------|
E|-------------------------------------------------|

E|------------------------------17-|
B|--------------13-15--13-15b17----|
G|----12-13--14--------------------|
D|-15------------------------------|
A|---------------------------------|
E|---------------------------------|

E|-15-15b17-13-15--17-12-15--12-15b17-|
B|------------------------------------|
G|------------------------------------|
D|------------------------------------|
A|------------------------------------|
E|------------------------------------|

E|-12-15-12--15-12-15b17--17-20--17-20-20-23-|
B|-------------------------------------------|
G|-------------------------------------------|
D|-------------------------------------------|
A|-------------------------------------------|
E|-------------------------------------------|

E|-20-17-17-17-23--20-17-20--17-22-20--|
B|-------------------------------------|
G|-------------------------------------|
D|-------------------------------------|
A|-------------------------------------|
E|-------------------------------------|

E|-17-17-17------------17--------------------|
B|-----------20-17-20-----20p17--18-20p17----|
G|----------------------------------------17-|
D|-------------------------------------------|
A|-------------------------------------------|
E|-------------------------------------------|

E|----------------------------------------------|
B|----------18b20--18p17-15--17----15-----------|
G|-18-19-20---------------------16-----16-14-16-|
D|----------------------------------------------|
A|----------------------------------------------|
E|----------------------------------------------|

E|--------------------------------|
B|--------------------------------|
G|-14----14-----------------------|
D|----13-----13-14-13--12-10------|
A|---------------------------9-12-|
E|--------------------------------|

E|-24b26----24b26----24b26----24b26----(26)r24-|
B|---------------------------------------------|
G|---------------------------------------------|
D|---------------------------------------------|
A|---------------------------------------------|
E|---------------------------------------------|

E|-24b26--24b26--24b26--24b26--24b26--24b26--(26)r24-|
B|---------------------------------------------------|
G|---------------------------------------------------|
D|---------------------------------------------------|
A|---------------------------------------------------|
E|---------------------------------------------------|

E|-22-24-22-24-22-----------------22-------22-24-|
B|----------------24-23--24-23-24----24-23-------|
G|-----------------------------------------------|
D|-----------------------------------------------|
A|-----------------------------------------------|
E|-----------------------------------------------|

E|-28b30----28b30----28b30----28b30--28b30-|
B|-----------------------------------------| [push string against    ]
G|-----------------------------------------| [pickup to get this bend]
D|-----------------------------------------|
A|-----------------------------------------|
E|-----------------------------------------|

E|-21p19----22p21---21----22p21----21---22p21---21------22p20-|
B|-------22-------22---22-------22----22------22---22-22------|
G|------------------------------------------------------------|
D|------------------------------------------------------------|
A|------------------------------------------------------------|
E|------------------------------------------------------------|

E|----20--20-22p20--20----20-22p20--20----20-22p20-----20-22-|
B|-22---22--------22---22---------22---22---------22-24------|
G|-----------------------------------------------------------|
D|-----------------------------------------------------------|
A|-----------------------------------------------------------|
E|-----------------------------------------------------------|

E|-24b26----24b26----24b26----(26)r24-|
B|------------------------------------|
G|------------------------------------|
D|------------------------------------|
A|------------------------------------|
E|------------------------------------|

E|-28b30----28b30----28b30----(30)r28--/12-8-|
B|-------------------------------------------| [push string against    ]
G|-------------------------------------------| [pickup to get this bend]
D|-------------------------------------------|
A|-------------------------------------------|
E|-------------------------------------------|

E|---------------------------------------------------------|
B|---------------------8-10-8-10h11-10-8h10-8-6h8-6-10-----|
G|-------------7-9-7-9---------------------------------/12-|
D|-7-9-10-9-10---------------------------------------------|
A|---------------------------------------------------------|
E|---------------------------------------------------------|

E|-------------11-12----------11-12-14-12-14b16-|
B|-10-13-10-13-------13-12-13-------------------|
G|----------------------------------------------|
D|----------------------------------------------|
A|----------------------------------------------|
E|----------------------------------------------|

E|-11-12----------------------14-12----|
B|-------15b16--(16)r15-13-15-------15-|
G|-------------------------------------|
D|-------------------------------------|
A|-------------------------------------|
E|-------------------------------------|

E|-------------------------------------|
B|-20------20-------20-----------------|
G|-19b21---19b21----19b21-17---17------|
D|----------------------------------19-|
A|-------------------------------------|
E|-------------------------------------|

E|------------------------------------------------------|
B|------------------------------------------------------|
G|-17h19----17-19-17----17------------------------------|
D|-------19----------19----19p18-17---17-17-------------|
A|----------------------------------19-----19-18-17-----|
E|--------------------------------------------------17\-|

E|-22-20-17-17----------17-------------------|
B|-------------20-17-20----20-17-20-17----17-|
G|-------------------------------------19----|
D|-------------------------------------------|
A|-------------------------------------------|
E|-------------------------------------------|

E|-------------------------------|
B|-------17-19-17----------------|
G|-19-17----------19-17----------|
D|-------------------------------|
A|----------------------19-17----|
E|----------------------------20-|

E|----------------------------------------------------------|
B|---------20-17--------------------------------------------|
G|-17-19-20-----20-19-17-19-20-19-17------------------------|
D|----------------------------------19-18-17--17-18-19------|
A|------------------------------------------19--------17-19-|
E|----------------------------------------------------------|

[tremolo pick the following unison bends]
E|-----------------------------------|
B|-20-------20-------20-------20-----|
G|-19b21----19b21----19b21----19b21--|
D|-----------------------------------|
A|-----------------------------------|
E|-----------------------------------|

E|-----------------------------------------------------|
B|-20-------20-------20-------20-----------(20)----19\-|
G|-19b21----19b21----19b21----19b21--------(21)r19-18\-|
D|-----------------------------------------------------|
A|-----------------------------------------------------|
E|-----------------------------------------------------|

End Solo



Riff 5
E|-----------------------------------------------|
B|-----------------------------------------------|
G|-----------------------------------------------|
D|-------------------------------------------9---|
A|-------------------------------4h5p4-------7-8-|
E|-555-666-555-333-55-66-555-666-------6-5-0---6-|
   *** *** *** *** ** ** *** ***       * * *


Play Riff 5   "And now down below..."


Riff 5a
E|---------------------------------------|
B|---------------------------------------|
G|---------------------------------------|
D|-----------------------------------9---|
A|-7--8--7--5--7-8-7--8--4h5p4-------7-8-|
E|-5--6--5--3--5-6-5--6--------6-5-0---6-|
   "And now coming back..."    * * *


Ending:
E|---------------------------------|
B|---------------------------------|
G|---------------------------------|
D|---------------------------------|
A|-1p0-0-3p1p0-5p3p0-6p5p0-6p5p3p0-|
E|---------------------------------|

E|---------------------------------|
B|---------------------------------|
G|---------------------------------|
D|---------------------------------|
A|-1p0-0-3p1p0-5p3p0-6p5p0-5h6p5p3-|
E|---------------------------------|

E|-----------------------|
B|-----------------------|
G|-----------------------|
D|-2--------3------------|
A|-0--------1--------7\--|
E|-------------------5\--|
        "I loved you to deth, whoa!"


Notation:

10^        = bend a quarter step.
10b11      = bend a half step.
10b12      = bend a full step.
10b12r10   = bend and release.
[10]12     = pre-bend.
[10]12r10  = pre-bend and release.
{14}       = pick the 14th fret while holding the most
             previous bend.
       = touch the string above the 17th fret while
             previous note(s) is(are) still ringing.

10b13*     = tremolo bar bend, from the 10th fret to the 13th fret.
7d4*       = tremolo bar dive, from the 7th fret to the 4th fret.
12~*       = tremolo bar vibrato.

x   =  mute with fret-hand
*   =  palm mute
X\\ =  pick slide
h   =  hammer-on
p   =  pull-off
~   =  vibrato
t   =  finger tap
/   =  slide up
\   =  slide down
h.  =  natural harmonics
a   =  artificial harmonics
(9) =  ghost note
tm  =  trem picking

Almost there ...

Sign in to get your own page with links to favourite songs and more. You are just one click away...

Login with Facebook Login with Google