Guitar Tabs Explorer
Megadeth guitar tabs for Fatal illusion

Fatal Illusion tab


4 / 5 [2 votes]

Fatal Illusion tab by Megadeth

Guitar tabs

Print

Tuning: D chord diagramDD Standard (DGCFAD)


------------------------------------------------------------------------------
------------------------------------------------------------------------------
------------------------------------------------------------------------------
--------------------------5-----4-----3-----2---------------------------------
-2--3--4--5--6--5--4--3---7-----6-----5-----4---------------------------------
-0--1--2--3--4--3--2--1------0-----0-----0------------------------------------
                                                repeat above bar 4x

------------------------------------------------------------------------------
------------------------------------------------------------------------------
------------------------------------------------------------------------------
-------------------------5-----4-----3-----2----------------------------------
-2--3--4--5--6--5--4-----7-----6-----5-----4----------------------------------
-0--1--2--3--4--3--2--0-----0-----0-----0-------------------------------------
                                               repeat above bar 4x

------------------------------------------------------------------------------
------------------------------------------------------------------------------
------------------------------------------------------------------------------
-2----------------------------------------------------------------------------
-2-------------------------------------------------------5------5-------------
-0----------------------------------------------------0--3---0--3-------------


------------------------------------------------------------------------------
------------------------------------------------------------------------------
------------------------------------------------------------------------------
------------------------------------------------------------------------------
----7p5---5-----8p7p5---7p5---------7p5---5-----8p7p5---7p5-------------------
-0------7---6h7-------8-----8-7--0------7---6h7-------8-----8-7---------------


------------------------------------------------------------------------------
------------------------------------------------------------------------------
------------------------------------------------------------------------------
--------------------------------------------------7-7-7-7-7-7-7-7-------------
----7p5---5------8p7p5---7p5---------7p5---5------5-5-5-5-5-5-5-5-------------
-0------7----6h7-------8-----8-7--0------7---6h7------------------------------


------------------------------------------------------------------------------
------------------------------------------------------------------------------
------------------------------------------------------------------------------
------------------------------------------------------------------------------
----7p5---5-----8p7p5---7p5---------7p5---5-----8p7p5---7p5-------------------
-0------7---6h7-------8-----8-7--0------7---6h7-------8-----8-7---------------


------------------------------------------------------------------------------
------------------------------------------------------------------------------
------------------------------------------------------------------------------
------------------------------------------------------------------------------
----7p5---5------8p7p5---7p5---------7p5---5----------5------5----------------
-0------7----6h7-------8-----8-7--0------7---6h7---0--3---0--3----------------


------------------------------------------------------------------------------
------------------------------------------------------------------------------
------------------------------------------------------------------------------
------------------------------------------------------------------------------
-4------2-3-4---------2-3-4------2-3-4----------2-3-4------2-3-4--------------
---2--5-------2--5--5-------2--5--------2--5--5-------2--5-------2--5---------


------------------------------------------------------------------------------
------------------------------------------------------------------------------
------------------------------------------------------------------------------
------------------------------------------------------------------------------
---2-3-4------2-3-4----------2-3-4------2-3-4---------2-3-4------2-3-4--------
-5-------2--5--------2--5--5-------2--5-------2--5--5-------2--5-------2--5---


------------------------------------------------------------------------------
------------------------------------------------------------------------------
------------------------------------------------------------------------------
------------------------------------------------------------------------------
---2-3-4------2-3-4---------2-3-4------2-3-4---------2-3----------------------
-5-------2--5-------2--5--5-------2--5-------2--5--5--------------------------


------------------------------------------------------------------------------
------------------------------------------------------------------------------
------------------------------------------------------------------------------
------------------------------------------------------------------------------
----7p5---5-----8p7p5---7p5---------7p5---5-----8p7p5---7p5-------------------
-0------7---6h7-------8-----8-7--0------7---6h7-------8-----8-7---------------


------------------------------------------------------------------------------
------------------------------------------------------------------------------
------------------------------------------------------------------------------
--------------------------------------------------7-7-7-7-7-7-7-7-------------
----7p5---5------8p7p5---7p5---------7p5---5------5-5-5-5-5-5-5-5-------------
-0------7----6h7-------8-----8-7--0------7---6h7------------------------------


------------------------------------------------------------------------------
------------------------------------------------------------------------------
------------------------------------------------------------------------------
------------------------------------------------------------------------------
----7p5---5-----8p7p5---7p5---------7p5---5-----8p7p5---7p5-------------------
-0------7---6h7-------8-----8-7--0------7---6h7-------8-----8-7---------------


------------------------------------------------------------------------------
------------------------------------------------------------------------------
------------------------------------------------------------------------------
------------------------------------------------------------------------------
----7p5---5------8p7p5---7p5---------7p5---5----------5------5----------------
-0------7----6h7-------8-----8-7--0------7---6h7---0--3---0--3----------------


------------------------------------------------------------------------------
------------------------------------------------------------------------------
------------------------------------------------------------------------------
------------------------------------------------------------------------------
-4------2-3-4---------2-3-4------2-3-4----------2-3-4------2-3-4--------------
---2--5-------2--5--5-------2--5--------2--5--5-------2--5-------2--5---------


------------------------------------------------------------------------------
------------------------------------------------------------------------------
------------------------------------------------------------------------------
------------------------------------------------------------------------------
---2-3-4------2-3-4----------2-3-4------2-3-4---------2-3-4------2-3-4--------
-5-------2--5--------2--5--5-------2--5-------2--5--5-------2--5-------2--5---


------------------------------------------------------------------------------
------------------------------------------------------------------------------
------------------------------------------------------------------------------
------------------------------------------------------------------------------
---2-3-4------2-3-4---------2-3-4------2-3-4----------------------------------
-5-------2--5-------2--5--5-------2--5-------2--5-----------------------------


------------------------------------------------------------------------------
------------------------------------------------------------------------------
------------------------------------------------------------------------------
------------------------------------------------------------------------------
---3-4-5------3-4-5----------3-4-5------3-4-5---------2-3-4-------2-3-4-------
-5-------3--6--------3--6--6-------3--6-------3-6--6---------2--5-------2-----


------------------------------------------------------------------------------
------------------------------------------------------------------------------
------------------------------------------------------------------------------
------------------------------------------------------------------------------
------2-3-4------2-3-4---------3-4-5------3-4-5----------3-4-5------3-4-5-----
-5--5-------2--5-------2--5--5-------3--6--------3--6--6-------3--6-------3-6-


------------------------------------------------------------------------------
------------------------------------------------------------------------------
------------------------------------------------------------------------------
------------------------------------------------------------------------------
-----2-3-4------2-3-4----------2-3-4------2-3-4---------2-3-------------------
-6---------2--5-------2---5--5-------2--5-------2--5--5-----2-----------------


------------------------------------------------------------------------------
------------------------------------------------------------------------------
------------------------------------------------------------------------------
------------------------------------------------------------------------------
-------------------2h3p2p0----------------------------------------------------
-2--2-2-3-2-0-2--2------------------------------------------------------------
                               above bar played 16x then....

------------------------------------------------------------------------------
------------------------------------------------------------------------------
------------------------------------------------------------------------------
------------------------------------------------------------------------------
-3-3-3-3-3-3-3-3-3-3-3-3-3-3-3-3-3-3-3-3-3-3-3-3-3-3-3-3-2h3p0----------------
------------------------------------------------------------------------------


------------------------------------------------------------------------------
------------------------------------------------------------------------------
------------------------------------------------------------------------------
------------------------------------------------------------------------------
-------------------2h3p2p0---------------------2h3p2p0------------------------
-2--2-2-3-2-0-2--2-----------2--2-2-3-2-0-2--2--------------------------------


------------------------------------------------------------------------------
------------------------------------------------------------------------------
------------------------------------------------------------------------------
------------------------------------------------------------------------------
-3-3-3-3-3-3-3-3-3-3-3-3-3-3-3-3-3-3-3-3-3-3-3-3-3-3-3-3-2h3p0----------------
------------------------------------------------------------------------------


------------------------------------------------------------------------------
------------------------------------------------------------------------------
------------------------------------------------------------------------------
------------------------------------------------------------------------------
-------------------2h3p2p0----------------------------------------------------
-2--2-2-3-2-0-2--2------------------------------------------------------------
                             above bar played 3 times then...

------------------------------------------------------------------------------
------------------------------------------------------------------------------
------------------------------------------------------------------------------
------------------------------------------------------------------------------
------------------------------------------------------------------------------
-2--2-2-3-2-0-2--2-2-2-2-2-2-2-2-2-2-2-2-2-2-1-1-1-1-1-1-1-1-1-1-1-1-1-1-1-1--


------------------------------------------------------------------------------
------------------------------------------------------------------------------
------------------------------------------------------------------------------
------------------------------------------------------------------------------
-----------------7-------------7----------------------------------------------
-0-0-0-0-0-0-0-0---0-0-0-0-0-0---8-7-6h7p6h7p6h7p6h7p6------------------------
                                 above bar repeat twice then...

------------------------------------------------------------------------------
------------------------------------------------------------------------------
------------------------------------------------------------------------------
------------------------------------------------------------------------------
------------------------------------------------------------------------------
-0-0-0-0-0-0-0-0-0-0-0-0-0-0-0-0-0-0-0-0-0-0-0-0-0-0-0-0-0-0-0-0-0-0-0-0-0-0--


------------------------------------------------------------------------------
------------------------------------------------------------------------------
------------------------------------------------------------------------------
------------------------------------------------------------------------------
------------------------------------------------------------------------------
-0-0-0-0-0-0-0-0-0-0-0-0-0-0-0-0-0-0-0-0-0-0-0-0-0-0-0-0-0-0-0-0-0-0----------


------------------------------------------------------------------------------
------------------------------------------------------------------------------
------------------------------------------------------------------------------
------------------------------------------------------------------------------
-7-------------7-----------------------------------------7--------------------
---0-0-0-0-0-0---8-7--6h7p6h7p6h7p6h7p6--0-0-0-0-0-0-0-0---0-0-0-0-0-0--------


------------------------------------------------------------------------------
------------------------------------------------------------------------------
------------------------------------------------------------------------------
------------------------------------------------------------------------------
-7----------------------------------------------------------------------------
---8-7--6h7p6h7p6h7p6h7p6-----------------------------------------------------
                               etc.....

------------------------------------------------------------------------------
------------------------------------------------------------------------------
------------------------------------------------------------------------------
------------------------------------------------------------------------------
-----------2-2-------4-4-------5-5--------------------------------------------
-5-5--2-2-------2-2-------2-2-------2-2---6-6-6--6-6-6------------------------


------------------------------------------------------------------------------
------------------------------------------------------------------------------
------------------------------------------------------------------------------
------------------------------------------------------------------------------
-----------2-2-------4-4-------5-5--------------------------------------------
-5-5--2-2-------2-2-------2-2-------2-2---6-6-6--6-6-6------------------------

Comment this song and these guitar tabs

Do you have corrections, comments on the guitar tabs, thoughts about the song or a message to the author? Write them below.