Search tabs and chords

Search for song, artist or band

Log in

One click and you are in

Login with Facebook Login with Google

Why sign up and log in

Guitar Tabs Explorer
Megadeth bass tabs for Dystopia

Bass tabs

Megadeth - Dystopia

Intro:
F|------------------------------------------------------------|
C|------------------------------------------------------------|
G|-5~----------------------------3~---------------------------|
D|------------------------------------------------------------|

F|------------------------------------------------------------|
C|------------------------------------------------------------|
G|-2~----------------------------1~---------------------------|
D|------------------------------------------------------------|

F|------------------------------------------------------------|
C|------------------------------------------------------------|
G|-5~----------------------------3~---------------------------|
D|------------------------------------------------------------|

F|------------------------------------------------------------|
C|------------------------------------------------------------|
G|-2~----------------------------1~---------------------------|
D|------------------------------------------------------------|

F|------------------------------------------------------------|
C|------------------------------------------------------------|
G|-5~-5-5-5-5-5-5-5-5-5-5-5-5-5--4~-4-4-4-4-4-4-4-4-4-4-4-4-4-|
D|------------------------------------------------------------|

F|------------------------------------------------------------|
C|------------------------------------------------------------|
G|-3~-3-3-3-3-3-3-3-3-3-3-3-3-3--2~-2-2-2-2-2-2-2-2-2-2-2-2-3-|
D|------------------------------------------------------------|

F|----------------------5-------------------------------------|
C|------------------5-7---7-5-0-------------------7-5---5\----|
G|-5~-5-5-5-5-5-5-5--------------4~-4-4-4-4-4-4-4-----8-------|
D|------------------------------------------------------------|

F|----------------------5-------------------------------------|
C|------------------5-7---7\----------------------------------|
G|-3~-3-3-3-3-3-3-3--------------2~-2-2-2-2-2-2------------5--|
D|----------------------------------------------3-3-4--4-5----|

Verse:
F|-------------------------------------------------------------|
C|-------------------------------------------------------------|
G|-5~-5-5-5-5-5-5-5~-5-5-5-5-5-5-5~-5-5-5-5-5-5-5~-5-5-5-5-5-5-|
D|-------------------------------------------------------------|

F|-----------------------------------------------------------|
C|-----------------------------------------------------------|
G|-5~-5-5-5-5-5-5-3~-3-3-3-3-3-3---------------------------5-|
D|-------------------------------3~-3-3-3-3-3-3-3-3-4--4-5---|

F|-------------------------------------------------------------|
C|-------------------------------------------------------------|
G|-5~-5-5-5-5-5-5-5~-5-5-5-5-5-5-5~-5-5-5-5-5-5-5~-5-5-5-5-5-5-|
D|-------------------------------------------------------------|

F|-----------------------------------------------------------|
C|-----------------------------------------------------------|
G|-5~-5-5-5-5-5-5-3~-3-3-3-3-3-3---------------------------5-|
D|-------------------------------3~-3-3-3-3-3-3-3-3-4--4-5---|

F|-------------------------------------------------------------|
C|-------------------------------------------------------------|
G|-5~-5-5-5-5-5-5-5~-5-5-5-5-5-5-5~-5-5-5-5-5-5-5~-5-5-5-5-5-5-|
D|-------------------------------------------------------------|

F|-----------------------------------------------------------|
C|-----------------------------------------------------------|
G|-5~-5-5-5-5-5-5-3~-3-3-3-3-3-3---------------------------5-|
D|-------------------------------3~-3-3-3-3-3-3-3-3-4--4-5---|

F|-------------------------------------------------------------|
C|-------------------------------------------------------------|
G|-5~-5-5-5-5-5-5-5~-5-5-5-5-5-5-5~-5-5-5-5-5-5-5~-5-5-5-5-5-5-|
D|-------------------------------------------------------------|

F|---------------------------------------------------------------------------------|
C|----------------------------------------------5--3------3---------------2~-------|
G|-5~-5-5-5-5-5-5-3~-3-3-3-3-3-3----------------------3-3----3\--------------------|
D|-------------------------------3~-3-3-3-3-3-3--------------------3~----------0~--|

Chorus:
F|-----------------------------------------------------------------|
C|-----------------------------------------------------------------|
G|-0-0-0-0-0-0-0-0-3-3-3-3-3-3-3-3-8-8-8-8-8-8-8-8-5-5-5-5-5-3--2--| x3
D|-----------------------------------------------------------------|

F|-----------------------------------------------------------------|
C|-----------------------------------------------------------------|
G|-0-0-0-0-0-0-0-0-3-3-3-3-3-3-3-3-8-8-8-8-8-8-8-8-5\------------5-|
D|-----------------------------------------------------------------|

Verse:
F|-------------------------------------------------------------|
C|-------------------------------------------------------------|
G|-5~-5-5-5-5-5-5-5~-5-5-5-5-5-5-5~-5-5-5-5-5-5-5~-5-5-5-5-5-5-|
D|-------------------------------------------------------------|

F|-----------------------------------------------------------|
C|-----------------------------------------------------------|
G|-5~-5-5-5-5-5-5-3~-3-3-3-3-3-3---------------------------5-|
D|-------------------------------3~-3-3-3-3-3-3-3-3-4--4-5---|

F|-------------------------------------------------------------|
C|-------------------------------------------------------------|
G|-5~-5-5-5-5-5-5-5~-5-5-5-5-5-5-5~-5-5-5-5-5-5-5~-5-5-5-5-5-5-|
D|-------------------------------------------------------------|

F|-----------------------------------------------------------|
C|-----------------------------------------------------------|
G|-5~-5-5-5-5-5-5-3~-3-3-3-3-3-3---------------------------5-|
D|-------------------------------3~-3-3-3-3-3-3-3-3-4--4-5---|

F|-------------------------------------------------------------|
C|-------------------------------------------------------------|
G|-5~-5-5-5-5-5-5-5~-5-5-5-5-5-5-5~-5-5-5-5-5-5-5~-5-5-5-5-5-5-|
D|-------------------------------------------------------------|

F|-----------------------------------------------------------|
C|-----------------------------------------------------------|
G|-5~-5-5-5-5-5-5-3~-3-3-3-3-3-3---------------------------5-|
D|-------------------------------3~-3-3-3-3-3-3-3-3-4--4-5---|

F|-------------------------------------------------------------|
C|-------------------------------------------------------------|
G|-5~-5-5-5-5-5-5-5~-5-5-5-5-5-5-5~-5-5-5-5-5-5-5~-5-5-5-5-5-5-|
D|-------------------------------------------------------------|

F|---------------------------------------------------------------------------------|
C|----------------------------------------------5--3------3---------------2~-------|
G|-5~-5-5-5-5-5-5-3~-3-3-3-3-3-3----------------------3-3----3\--------------------|
D|-------------------------------3~-3-3-3-3-3-3--------------------3~----------0~--|

Chorus 2:
F|-----------------------------------------------------------------|
C|-----------------------------------------------------------------|
G|-0-0-0-0-0-0-0-0-3-3-3-3-3-3-3-3-8-8-8-8-8-8-8-8-5-5-5-5-5-3--2--| x3
D|-----------------------------------------------------------------|

F|-----------------------------------------------------------------|
C|-----------------------------------------------------------------|
G|-0-0-0-0-0-0-0-0-3-3-3-3-3-3-3-3-8-8-8-8-8-8-8-8-5-5-5-5-5-5-5-5-|
D|-----------------------------------------------------------------|

F|----------------------------------|
C|----------------------------------|
G|-8-8-8-8-8-8-8-8-5\---------------|
D|----------------------------------|

Bridge: (x2)
F|------------------------------------------------------|
C|--------4-------------------------4-------------------|
G|------------------------------------------0--2--2-4-0-|
D|-2-2--2----2-2--2-2--2-2---2-2--2----2-2--------------|

F|-------------------------------------------------------|
C|--------4-------------------------4--------------------|
G|----------------------------------------4--3--2--0-2-0-|
D|-2-2--2----2-2--2-2--2-2---2-2--2----2-----------------|

F|------------------------------------------------------|
C|--------4-------------------------4-------------------|
G|------------------------------------------0--2--2-4-0-|
D|-2-2--2----2-2--2-2--2-2---2-2--2----2-2--------------|

F|--------------------------------------------------------------|
C|--------4-------------------------4---------------------------|
G|----------------------------------------4-3-2-0-2-3-4-3-2-0-2-|
D|-2-2--2----2-2--2-2--2-2---2-2--2----2------------------------|

F|--------------------------------------------------------|
C|--------------------------------------------------------|
G|-4-4-4-4-4-4-4-4-4-4-4-4-4-4-4-4-4~------4--3--2--0-2-0-|
D|--------------------------------------------------------|

Interlude:
F|-------------------------|
C|-------------------------|
G|-------------------------| x12
D|-2\-----------------2h3~-|

Outro Part 1: (x2)
F|-------------------------|
C|-------------------------|
G|-------------------------| x3
D|-0-2-2~--0-2-2~--0-2-2-0-|

F|-------------------------|
C|-------------------------|
G|-------------------------|
D|-0-2-2~--0-2-2~----------|

Outro Part 2:
F|-------------------------|
C|-------------------------|
G|-------------------------| x3
D|-0-2-2~--0-2-2~--0-2-0~--|

F|-------------------------|
C|-------------------------|
G|-------------------------|
D|-0-2-2~--0-2-2~----------|

F|-------------------------|
C|-------------------------|
G|-------------------------| x3
D|-0-2-2~--0-2-2~--0-2-0~--|

F|------------------------------|
C|------------------------------|
G|----------------4-3-2---------|
D|-0-2-2~--0-2-2~-------5-4-3-2-|


********************

~ = vibrato
\ = slide down

********************

Almost there ...

Sign in to get your own page with links to favourite songs and more. You are just one click away...

Login with Facebook Login with Google