Log in

One click and you are in

Login with Facebook Login with Google

Why sign up and log in

Guitar Tabs Explorer
Megadeth bass tabs for A tout le monde

Bass tabs

Verse 1:

No bass part for this section (16 bars).
Pre-Chorus 1:
  (4/4)
   1  +  2  +  3  +  4  +   1  +  2  +  3  +  4  +
Gb|----------------------------------------|----------------------------------------|
Db|----------------------------------------|----------------------------------------|
Ab|----------------------------------------|----------------------------------------|
Eb|--2----2----2----2----2----2----2----2--|--2----2----2----2----2----2----2----2--|
Bb|----------------------------------------|----------------------------------------|


   1  +  2  +  3  +  4  +   1  +  2  +  3  +  4  +
Gb|----------------------------------------|----------------------------------------|
Db|----------------------------------------|----------------------------------------|
Ab|----------------------------------------|----------------------------------------|
Eb|--2----2----2----2----2----2----2----2--|--2----2----2----2----2----2----2----0--|
Bb|----------------------------------------|----------------------------------------|


   1  +  2  +  3  +  4  +   1  +  2  +  3  +  4  +
Gb|----------------------------------------|----------------------------------------|
Db|----------------------------------------|----------------------------------------|
Ab|-------------------------------------0--|--0----0----0----0----0----0----0----0--|
Eb|--2----2----2----2----2----0----2-------|----------------------------------------|
Bb|----------------------------------------|----------------------------------------|


   1  +  2  +  3  +  4  +   1  +  2  +  3  +  4  +
Gb|----------------------------------------|----------------------------------------|
Db|----------------------------------------|----------------------------------------|
Ab|--2----2----2----2----2----0----2----4--|--5----5----5----5----5----5----5----5--|
Eb|----------------------------------------|----------------------------------------|
Bb|----------------------------------------|----------------------------------------|

   1  +  2  +  3  +  4  +
Gb|----------------------------------------|
Db|----------------------------------------|
Ab|--5----5----5----5----5----5----5-------|
Eb|-------------------------------------0--|
Bb|----------------------------------------|


Chorus 1:

   1  +  2  +  3  +  4  +   1  +  2  +  3  +  4  +
Gb|----------------------------------------|----------------------------------------|
Db|----------------------------------------|----------------------------------------|
Ab|----------------------------------------|----------------------------------------|
Eb|--2-------------------2----2------------|--0-------------------0----0------------|
Bb|----------------------------------------|----------------------------------------|


   1  +  2  +  3  +  4  +   1  +  2  +  3  +  4  +
Gb|----------------------------------------|----------------------------------------|
Db|----------------------------------------|----------------------------------------|
Ab|--2-------------------2----2---------0--|----------------------------------------|
Eb|----------------------------------------|--2-------------------2----2---------0--|
Bb|----------------------------------------|----------------------------------------|


   1  +  2  +  3  +  4  +   1  +  2  +  3  +  4  +
Gb|----------------------------------------|----------------------------------------|
Db|----------------------------------------|----------------------------------------|
Ab|--0-------------------0----0---------2--|--4-------------------4----4---------4--|
Eb|----------------------------------------|----------------------------------------|
Bb|----------------------------------------|----------------------------------------|


   1  +  2  +  3  +  4  +   1  +  2  +  3  +  4  +
Gb|----------------------------------------|----------------------------------------|
Db|----------------------------------------|----------------------------------------|
Ab|--2-------------------2----0------------|----------------------------------------|
Eb|--------------------------------4----2--|-------------------------------------0--|
Bb|----------------------------------------|--3----3----3----3----3----3----3-------|


Verse 2:

   1  +  2  +  3  +  4  +   1  +  2  +  3  +  4  +
Gb|----------------------------------------|----------------------------------------|
Db|----------------------------------------|----------------------------------------|
Ab|----------------------------------------|----------------------------------------|
Eb|--2-------------------2--------------2--|--0-------------------0-----------------|
Bb|----------------------------------------|----------------------------------------|


   1  +  2  +  3  +  4  +   1  +  2  +  3  +  4  +
Gb|----------------------------------------|----------------------------------------|
Db|----------------------------------------|----------------------------------------|
Ab|--2-------------------2-----------------|----------------------------------------|
Eb|-------------------------------------2--|--3--------------3----5--------------3--|
Bb|----------------------------------------|----------------------------------------|


   1  +  2  +  3  +  4  +   1  +  2  +  3  +  4  +
Gb|----------------------------------------|----------------------------------------|
Db|----------------------------------------|----------------------------------------|
Ab|----------------------------------------|----------------------------------------|
Eb|--2-------------------2-----------------|--0-------------------0----0------------|
Bb|----------------------------------------|----------------------------------------|


   1  +  2  +  3  +  4  +   1  +  2  +  3  +  4  +
Gb|----------------------------------------|----------------------------------------|
Db|----------------------------------------|----------------------------------------|
Ab|--2-------------------2----2------------|----------------------------------------|
Eb|-------------------------------------2--|--3--------------3----5--------------5--|
Bb|----------------------------------------|----------------------------------------|


Pre-Chorus 2:

   1  +  2  +  3  +  4  +   1  +  2  +  3  +  4  +
Gb|----------------------------------------|----------------------------------------|
Db|----------------------------------------|----------------------------------------|
Ab|----------------------------------------|----------------------------------------|
Eb|--2----2----2----2----2----2----2----2--|--2----2----2----2----2----2----2----2--|
Bb|----------------------------------------|----------------------------------------|


   1  +  2  +  3  +  4  +   1  +  2  +  3  +  4  +
Gb|----------------------------------------|----------------------------------------|
Db|----------------------------------------|---------------------------4------------|
Ab|----------------------------------------|--------------------------------2----4--|
Eb|--2----2----2----2----2----2----2----2--|--2----2----2----2----2-----------------|
Bb|----------------------------------------|----------------------------------------|


   1  +  2  +  3  +  4  +   1  +  2  +  3  +  4  +
Gb|----------------------------------------|----------------------------------------|
Db|----------------------------------------|----------------------------------------|
Ab|-------------------------------------0--|--0----0----0----0----0----0----0----0--|
Eb|--2----2----2----2----2----0----2-------|----------------------------------------|
Bb|----------------------------------------|----------------------------------------|


   1  +  2  +  3  +  4  +   1  +  2  +  3  +  4  +
Gb|----------------------------------------|----------------------------------------|
Db|----------------------------------------|----------------------------------------|
Ab|--2----2----2----2----2----0----2----4--|--5----5----5----5----5----5----5----5--|
Eb|----------------------------------------|----------------------------------------|
Bb|----------------------------------------|----------------------------------------|


   1  +  2  +  3  +  4  +
Gb|----------------------------------------|
Db|-------2--------------------------------|
Ab|--5---------5----4----5----4----2----0--|
Eb|----------------------------------------|
Bb|----------------------------------------|


Chorus 2:

   1  +  2  +  3  +  4  +   1  +  2  +  3  +  4  +
Gb|----------------------------------------|----------------------------------------|
Db|----------------------------------------|----------------------------------------|
Ab|----------------------------------------|----------------------------------------|
Eb|--2-------------------2----2------------|--0-------------------0----0------------|
Bb|----------------------------------------|----------------------------------------|


   1  +  2  +  3  +  4  +   1  +  2  +  3  +  4  +
Gb|----------------------------------------|----------------------------------------|
Db|----------------------------------------|----------------------4-----------------|
Ab|--2-------------------2----2---------0--|---------------------------2----4-------|
Eb|----------------------------------------|--2--------------2-------------------2--|
Bb|----------------------------------------|----------------------------------------|


   1  +  2  +  3  +  4  +   1  +  2  +  3  +  4  +
Gb|----------------------------------------|----------------------------------------|
Db|----------------------------------------|----------------------------------------|
Ab|--0-------------------0----0---------2--|--4-------------------4----4---------4--|
Eb|----------------------------------------|----------------------------------------|
Bb|----------------------------------------|----------------------------------------|


   1  +  2  +  3  +  4  +   1  +  2  +  3  +  4  +
Gb|----------------------------------------|----------------------------------------|
Db|----------------------------------------|----------------------------------------|
Ab|--2-------------------2----0------------|----------------------------------------|
Eb|--------------------------------4----2--|-------------------------------------0--|
Bb|----------------------------------------|--3----3----3----3----3----3----3-------|


Solo 1:

   1  +  2  +  3  +  4  +   1  +  2  +  3  +  4  +
Gb|----------------------------------------|----------------------------------------|
Db|----------------------------------------|----------------------------------------|
Ab|----------------------------------------|----------------------------------------|
Eb|--2-------------------2--------------2--|--0-------------------0----0---------0--|
Bb|----------------------------------------|----------------------------------------|


   1  +  2  +  3  +  4  +   1  +  2  +  3  +  4  +
Gb|----------------------------------------|----------------------------------------|
Db|----------------------------------------|----------------------------------------|
Ab|--2-------------------2----2------------|----------------------------------------|
Eb|-------------------------------------2--|--3--------------3----5--------------3--|
Bb|----------------------------------------|----------------------------------------|


   1  +  2  +  3  +  4  +   1  +  2  +  3  +  4  +
Gb|----------------------------------------|----------------------------------------|
Db|----------------------------------------|----------------------------------------|
Ab|----------------------------------------|----------------------------------------|
Eb|--2-------------------2--------------2--|--0-------------------0----0------------|
Bb|----------------------------------------|----------------------------------------|


   1  +  2  +  3  +  4  +   1  +  2  +  3  +  4  +
Gb|----------------------------------------|----------------------------------------|
Db|----------------------------------------|----------------------------------------|
Ab|--2-------------------2----2------------|----------------------------------------|
Eb|-------------------------------------2--|--3--------------3----5--------------5--|
Bb|----------------------------------------|----------------------------------------|


Pre-Chorus 3:

   1  +  2  +  3  +  4  +   1  +  2  +  3  +  4  +
Gb|----------------------------------------|----------------------------------------|
Db|----------------------------------------|----------------------------------------|
Ab|----------------------------------------|----------------------------------------|
Eb|--4----4----4----4----4----4----4----4--|--4----4----4----4----4----4----4----4--|
Bb|----------------------------------------|----------------------------------------|


   1  +  2  +  3  +  4  +   1  +  2  +  3  +  4  +
Gb|----------------------------------------|----------------------------------------|
Db|----------------------------------------|-----------------6----------------------|
Ab|----------------------------------------|---------------------------4----6-------|
Eb|--4----4----4----4----4----4----4----4--|--4----4----4------------------------7--|
Bb|----------------------------------------|----------------------------------------|


   1  +  2  +  3  +  4  +   1  +  2  +  3  +  4  +
Gb|----------------------------------------|----------------------------------------|
Db|----------------------------------------|----------------------------------------|
Ab|----------------------------------------|----------------------------------------|
Eb|--4----4----4----4----4----2----4----7--|--7----7----7----7----7----7----7----7--|
Bb|----------------------------------------|----------------------------------------|


   1  +  2  +  3  +  4  +   1  +  2  +  3  +  4  +
Gb|----------------------------------------|----------------------------------------|
Db|----------------------------------------|----------------------------------------|
Ab|--4----4----4----4----4---------4----6--|--7----7----7----7----7----6----4-------|
Eb|---------------------------7------------|-------------------------------------7--|
Bb|----------------------------------------|----------------------------------------|


   1  +  2  +  3  +  4  +
Gb|----------------------------------------|
Db|----------------------------------------|
Ab|-------------------------------------2--|
Eb|--0----0----0----0----0----2----4-------|
Bb|----------------------------------------|


Chorus 3:

   1  +  2  +  3  +  4  +   1  +  2  +  3  +  4  +
Gb|----------------------------------------|----------------------------------------|
Db|----------------------------------------|----------------------------------------|
Ab|----------------------------------------|----------------------------------------|
Eb|--2-------------------2----2------------|--0-------------------0----0---------0--|
Bb|----------------------------------------|----------------------------------------|


   1  +  2  +  3  +  4  +   1  +  2  +  3  +  4  +
Gb|----------------------------------------|----------------------------------------|
Db|----------------------------------------|-----------------4----------------------|
Ab|--2-------------------2----2---------0--|---------------------------2----4-------|
Eb|----------------------------------------|--2----------------------------------2--|
Bb|----------------------------------------|----------------------------------------|


   1  +  2  +  3  +  4  +   1  +  2  +  3  +  4  +
Gb|----------------------------------------|----------------------------------------|
Db|----------------------------------------|----------------------------------------|
Ab|--0-------------------0----0---------2--|--4-------------------4----4---------4--|
Eb|----------------------------------------|----------------------------------------|
Bb|----------------------------------------|----------------------------------------|


   1  +  2  +  3  +  4  +   1  +  2  +  3  +  4  +
Gb|----------------------------------------|----------------------------------------|
Db|----------------------------------------|----------------------------------------|
Ab|--2-------------------2----0------------|----------------------------------------|
Eb|--------------------------------4----2--|-------------------------------------0--|
Bb|----------------------------------------|--3----3----3----3----3----2----3-------|


Chorus 4:

   1  +  2  +  3  +  4  +   1  +  2  +  3  +  4  +
Gb|----------------------------------------|----------------------------------------|
Db|----------------------------------------|----------------------------------------|
Ab|----------------------------------------|-----------------7---------6----4----0--|
Eb|--2-------------------2----2------------|--0-------------------------------------|
Bb|----------------------------------------|----------------------------------------|


   1  +  2  +  3  +  4  +   1  +  2  +  3  +  4  +
Gb|----------------------------------------|----------------------------------------|
Db|----------------------------------------|----------------------------------------|
Ab|--2-------------------2----2---------0--|-------------------------------------0--|
Eb|----------------------------------------|--2-------------------2----0----2-------|
Bb|----------------------------------------|----------------------------------------|


   1  +  2  +  3  +  4  +   1  +  2  +  3  +  4  +
Gb|----------------------------------------|----------------------------------------|
Db|----------------------------------------|----------------------------------------|
Ab|--0-------------------0----0---------2--|--4-------------------4----4---------4--|
Eb|----------------------------------------|----------------------------------------|
Bb|----------------------------------------|----------------------------------------|


   1  +  2  +  3  +  4  +   1  +  2  +  3  +  4  +
Gb|----------------------------------------|----------------------------------------|
Db|----------------------------------------|----------------------------------------|
Ab|--2-------------------2----0------------|---------------------------5---------5--|
Eb|--------------------------------4----2--|----------------------------------------|
Bb|----------------------------------------|--3----3----3----3----3---------3-------|


Solo 2:

   1  +  2  +  3  +  4  +   1  +  2  +  3  +  4  +
Gb|----------------------------------------|----------------------------------------|
Db|----------------------------------------|----------------------------------------|
Ab|----------------------------------------|----------------------------------------|
Eb|--2-------------------2----2------------|--0-------------------0----0------------|
Bb|----------------------------------------|----------------------------------------|


   1  +  2  +  3  +  4  +   1  +  2  +  3  +  4  +
Gb|----------------------------------------|----------------------------------------|
Db|----------------------------------------|----------------------------------------|
Ab|--2-------------------2----2------------|----------------------------------------|
Eb|-------------------------------------2--|--3--------------3---/5--------------3--|
Bb|----------------------------------------|----------------------------------------|


   1  +  2  +  3  +  4  +   1  +  2  +  3  +  4  +
Gb|----------------------------------------|----------------------------------------|
Db|----------------------------------------|----------------------------------------|
Ab|----------------------------------------|----------------------------------------|
Eb|--2-------------------2----2------------|--0-------------------0----0------------|
Bb|----------------------------------------|----------------------------------------|

                       |---3---| |---3---| |---3---| |---3---|
   1  +  2  +  3  +  4  +   1  +  2  +  3  +  4  +
Gb|----------------------------------------|-/7---6---------------------------------|
Db|----------------------------------------|------------7---6-----------------------|
Ab|--2-------------------2----2---------2--|----------------------7---5-------------|
Eb|----------------------------------------|--------------------------------7---5---|
Bb|----------------------------------------|----------------------------------------|

  (2/4)
   1  +  2  +
Gb|--------------------|
Db|--------------------|
Ab|--------------------|
Eb|--4----5----7---(7)\|
Bb|--------------------|


Outro:
  (4/4)
   1  +  2  +  3  +  4  +
Gb|----------------------------------------|
Db|----------------------------------------|
Ab|----------------------------------------|
Eb|--2-------------------------------------|
Bb|----------------------------------------|

Almost there ...

Sign in to get your own page with links to favourite songs and more. You are just one click away...

Login with Facebook Login with Google