Search tabs and chords

Search for song, artist or band

Log in

One click and you are in

Login with Facebook Login with Google

Why sign up and log in

Guitar Tabs Explorer
Megadeth guitar tabs for A tout le monde (Ver. 3)

Guitar tabs

Gtr 1 - Tuning Standard - (E chord diagramEE A chord diagramAA D chord diagramDD G chord diagramGG B chord diagramBB E chord diagramEE)



Riff 1 (Clean)
E|----------------------------------|
B|----------------------------------|
G|-----2-----2----------2-----2-----|
D|----------------------------------|
A|---4-----4-----4----4-----4-----4-|
E|-2-----2-----2----0-----0-----0---|
   "Don't remember..."
E|----------------------------------|
B|----------------------------------|
G|-----2-----2----------2-------2---|
D|---4-----4---4------0-------2-----|
A|-2-----2------------------0-------|
E|----------------2h3-----3-------3-|
  "...realized life was a game..."


Riff 2 (Distortion)
E|----------------------------------|
B|----------------------------------|
G|----------2------2h4----2-4-------|
D|-4----2-4-2----2-2h4----2-4-2--4--|
A|-4----2-4------2------------2--4--|
E|----------------------------------|
         * *      *        *   *
   "So as you read.."
E|------------------------------|
B|------------------------------|
G|------------2------4----2-4-2-|
D|---4----2-4-2----2-4----2-4-2-|
A|---4----2-4------2------------|
E|-0----------------------------|
    *      * *      *      *   *
   "Please smile when you..."
E|---------------------------------|
B|---------------------------------|
G|-7-7-7-7-7-7-7-7-7-7-7-7-7-7-7-7-|
D|-7-7-7-7-7-7-7-7-7-7-7-7-7-7-7-7-|
A|---------------------------------|
E|---------------------------------|
   "..all..."

Riff 3
Guitar 1 (Distortion)
E|------------------------------|
B|------------------------------|
G|------------------------------|
D|---------------4--------------|
A|-4----4-2------2----7\-4----4-|
E|-2----2-0----0------5\-2----2-|
         *      *              *
  "A tout le monde, a tout mes amis..."
E|-------------------------|
B|-------------------------|
G|-------------------------|
D|-2------6----6-4----4--7-|
A|-0----0-4----4-2----2--5-|
E|-----------------------5-|
         *      *      *
  "These are the..., I'll ever speak..."


Guitar 2 (Clean)
E|------9------9-------7-----7-|
B|---10---10---------9---9-----|
G|-9---------9-----9-------9---|
D|-----------------------------|
A|-----------------------------|
E|-----------------------------|
  "A tout le monde, a tout mes amis..."

E|-----7-----7-------5-----5-|
B|---7---7---------7---7-----|
G|-8-------8-----6-------6---|
D|---------------------------|
A|---------------------------|
E|---------------------------|
  "Je vous aime, je dois partir..."

E|-----5-----5-------4-----4-|
B|---5---5---------5---5-----|
G|-6-------6-----6-------6---|
D|---------------------------|
A|---------------------------|
E|---------------------------|
  "These are the..., I'll ever speak..."

E|-----2-----2--0----|
B|---2---2------3----|
G|-4-------4----2----|
D|-------------------|
A|-------------------|
E|-------------------|
  "...and they'll set me free..."



Riff 1a
Guitar 1 (Clean)
E|------------------------------------|
B|------------------------------------|
G|-----2-----2-----------2------2-----|
D|------------------------------------|
A|---4-----4-----4----4------4------4-|
E|-2-----2-----2----0------0------0---|
   "If my heart..."
E|--------------------------------------|
B|--------------------------------------|
G|------2------2----------2--------2----|
D|----4------4---4------0--------2------|
A|--2------2-------------------0--------|
E|------------------2h3------3-------3--|
  "I know it would surely break..."

Guitar 2 (Distortion)
E|----------------------------------|
B|----------------------------------|
G|-----2-----2----------2-----2-----|
D|----------------------------------|
A|---4-----4-----4----4-----4-----4-|
E|-2-----2-----2----0-----0-----0---|
    * *   * *   *    * *   * *   *
E|----------------------------------|
B|----------------------------------|
G|-----2-----2----------2-------2---|
D|---4-----4---4------0-------2-----|
A|-2-----2------------------0-------|
E|----------------2-3-----3-------3-|
    * *   * *   *  * * *   * * *   *

Guitar 3 (Distortion)
E|---------------------------------|
B|---------------------------------|
G|---------------------------------|
D|---------------------------------|
A|-4-4-4-4-4-4-4-4-2-2-2-2-2-2-2-2-|
E|-2-2-2-2-2-2-2-2-0-0-0-0-0-0-0-0-|
    * * * * * * * * * * * * * * * *
E|-----------------------------------|
B|-----------------------------------|
G|-----------------------------------|
D|-4-4-4-4-4-4-4---------------------|
A|-2-2-2-2-2-2-2-4-5-----5-7-----5-4-|
E|---------------2-3-3-3-3-5-5-5-3-2-|
    * * * * * * *     * *     * *
E|-------------------------------|
B|-------------------------------|
G|-------------------------------|
D|-------------------------------|
A|-4-4-4-4-4-4-4-2-2-2-2-2-2-2-2-|
E|-2-2-2-2-2-2-2-0-0-0-0-0-0-0-0-|
    * * * * * * * * * * * * * * *
E|---------------------------------|
B|---------------------------------|
G|---------------------------------|
D|-4-4-4-4-4-4-4-------------------|
A|-2-2-2-2-2-2-2-4-5-----5-7-----5-|
E|---------------2-3-3-3-3-5-5-5-3-|
    * * * * * * *     * *     * *



Play Riff 2  "Moving on..."
Play Riff 3  "A tout le monde..."


Riff 4 (Solo Rhythm)
E|-----------------------------------|
B|-----------------------------------|
G|-----------------------------------|
D|-------------4---------------------|
A|-4-----2-----2-----4-5----5-7----5-|
E|-2-----0-----------2-3----3-5----3-|

E|-----------------------------------|
B|-----------------------------------|
G|-----------------------------------|
D|-------------4---------------------|
A|-4-----2-----2-----4-5----5-7----7-|
E|-2-----0-----------2-3----3-5----5-|


Solo (Friedman)
E|---------------------------------|
B|---------------------------------|
G|-11/14-11\9-9h11-----------------|
D|-----------------9/11~----11\9-7-|
A|---------------------------------|
E|---------------------------------|

E|--------------------------------------------|
B|--------------------------------------------|
G|-------------------------------------4/6-4~-|
D|-9-11--------------------------4--4---------|
A|------9----7h9-9~--9-7\4-4h5-5--------------|
E|---------9----------------------------------|

E|--------------------------------------|
B|--------------------------------------|
G|--------------------------------------|
D|-----7-9b10--7-9~~--7-9b10--7-9---7~\-|
A|-/9-----------------------------9-----|
E|--------------------------------------|

E|------------------------------{12}-------------------------|
B|-----10-10-10-10-10--10-11b12----{11}-(12)r9-(9)h10p9------|
G|-/11-11-11-11-11---11---------------------------------11-9-|
D|-----------------------------------------------------------|
A|-----------------------------------------------------------|
E|-----------------------------------------------------------|

E|------------------------------|
B|------------------------------|
G|-------/11-11-11/13-11--(11)\-|
D|-12~~--/12-12-12/14-12--(12)\-|
A|------------------------------|
E|------------------------------|

E|---------7-10-----7-10/12p9------------------9-12-11~~-|
B|-------8--------8-----------10------------10-----------|
G|-----7--------7----------------9--------9--------------|
D|-4/9---------------------------------11----------------|
A|----------------------------------12-------------------|
E|-------------------------------------------------------|

End solo


Riff 5
E|---------------------------------|
B|---------------------------------|
G|----------4------4h6----4-6------|
D|-6----4-6-4----4-4h6----4-6-4--6-|
A|-6----4-6------4------------4--6-|
E|---------------------------------|
         * *      *        *   *
   "So as you read.."
E|--------------------------------|
B|--------------------------------|
G|------------4------4h6----4-6-4-|
D|-4-6----4-6-4----4-4h6----4-6-4-|
A|-4-6----4-6------4--------------|
E|--------------------------------|
    *      * *      *        *   *
   "Please smile..."
E|---------------------------------|
B|---------------------------------|
G|-9-9-9-9-9-9-9-9-9-9-9-9-9-9-9-9-|
D|-9-9-9-9-9-9-9-9-9-9-9-9-9-9-9-9-|
A|---------------------------------|
E|---------------------------------|
   "...all..."


Play Riff 3   "A tout le monde..."


Riff 4a (Solo Rhythm)
E|-----------------------------------|
B|-----------------------------------|
G|-----------------------------------|
D|-------------4---------------------|
A|-4-----2-----2-----4-5----5-7----5-|
E|-2-----0-----------2-3----3-5----3-|

E|-------------------|
B|-------------------|
G|-------------------|
D|-------------4-----|
A|-4-----2-----2-----|
E|-2-----0-----------|


Solo
Guitar 1
E|--------------------------------------------------|
B|--------------------------------------------------|
G|-14-13--14----14-13--14-11~------14-13~--11-------|
D|-----------11------------------14-----------14-11-|
A|-----------------------------14-------------------|
E|--------------------------------------------------|

E|---------------------------------------------------|
B|---------------------------------------------------|
G|-16-14--16----16-14--16-11~------12-16--14--12--11-|
D|-----------12------------------12------------------|
A|-----------------------------14--------------------|
E|---------------------------------------------------|

E|--------------------------------------------------|
B|--------------------------------------------------|
G|-14-13--14----14-13--14-11~------14-13~--11-------|
D|-----------11------------------14-----------14-11-|
A|-----------------------------14-------------------|
E|--------------------------------------------------|

E|----------------------------|
B|----------------------------|
G|-16-14--16----16-14--16-11~-|
D|-----------12---------------|
A|----------------------------|
E|----------------------------|

E|-------------------------------|
B|-------------------------------|
G|-7-6---------------------------|
D|------7-6----------------------|
A|-----------7-5-----------------|
E|----------------7-5--4-5-7\--2-|

Guitar 2
E|----------------------------------------------------|
B|-14-12--14----14-12--14--/14~------14-12~-----------|
G|-----------11--------------------13--------14-13----|
D|-------------------------------14----------------14-|
A|----------------------------------------------------|
E|----------------------------------------------------|

E|----------------------------------------------------|
B|-15-14--15----15-14--15--/15~------12-15~--14-12-10-|
G|-----------11--------------------12-----------------|
D|-------------------------------12-------------------|
A|----------------------------------------------------|
E|----------------------------------------------------|

E|----------------------------------------------------|
B|-14-12--14----14-12--14--/14~------14-12~-----------|
G|-----------11--------------------13--------14-13----|
D|-------------------------------14----------------14-|
A|----------------------------------------------------|
E|----------------------------------------------------|

E|------------------------------|
B|-15-14--15----15-14--15--/15~-|
G|-----------11-----------------|
D|------------------------------|
A|------------------------------|
E|------------------------------|

E|------------------------------------------|
B|-15-14------------------------------------|
G|--------14-13-----------------------------|
D|---------------14-12----------------------|
A|----------------------14-12--11-12-14\--9-|
E|------------------------------------------|

End solo

Play Riff 1

Ending:
Guitarra 1
E|-------------------------------------2----|
B|-------------------------------------2----|
G|-------------------------------------2----|
D|------0---0------------0---0---------4----|
A|----4---4---4---4----4---4---4---4---4----|
E|--2-----------2----2-----------2-----2----|

Guitarra 2 (distorted)
E|------------------------------------------|
B|-------------------------------------6b7~-|
G|------------------------------------------|
D|------------------------------------------|
A|------------------------------------------|
E|------------------------------------------|

Other versions of A Tout Le Monde

A tout le mondeChords
A tout le mondeTabs
A tout le monde (Ver. 2)Tabs

Almost there ...

Sign in to get your own page with links to favourite songs and more. You are just one click away...

Login with Facebook Login with Google