Search tabs and chords

Search for song, artist or band

Log in

One click and you are in

Login with Facebook Login with Google

Why sign up and log in

Guitar Tabs Explorer
Megadeth guitar tabs for A tout le monde (Ver. 2)

Guitar tabs

Difficulty: Advanced

Intro:
       Acoustic (Let Ring)                                            (4x)

E|---||----------------|----------------|----------------|---------------------||
B|---||----------------|----------------|----------------|---------------------||
G|---||----2-----2-----|----2-----2-----|----2-----2-----|-----2-------2-------||
D|---||----------------|----------------|--4-----4-----4-|---0-------0---------||
A|---||--4-----4----4--|--4-----4-----4-|2-----2-----2---|---------------------||
E|---||2-----2-----2---|0-----0-----0---|----------------|0h3-----0h5-----3--2-||
Verse 1:
(Guitarra 1)

(----------------|----------------|----------------|----------------|
|----------------|----------------|----------------|----------------|
|----------------|----------------|----------------|----------------|
|4-------------7-|--------------7/|9-----------9---|4---------------|
|4-------4-4-4-7-|------------7-7/|9---------9-9-9-|4-------------4-|
|2-------2-2-2-5-|------------5-5/|7---------7-7-7-|2-------------2-|

         . . .                .              .   .                .
                                                                        (2x)

|----------------|----------------|----------------||-----------------------||
|----------------|----------------|----------------||-----------------------||
|----------------|----------------|----------------||-----------------------||
|4-------------7-|--------------7/|9-----------9---||12-12-12-12-12-12-12-11||
|4-------4-4-4-7-|------------7-7/|9---------9-9---||12-12-12-12-12-12-12-11||
|2-------2-2-2-5-|------------5-5/|7---------7-7---||10-10-10-10-10-10-10-9-||

         . . .                .              .

Chorus:
(Guitarra 1)

|------9---------|------7---------|------7---------|------5---------|
|---10---10----10|---9----9-----7-|---7----7-----7-|---7----7-----5-|
|9----------9----|9----------9----|8----------8----|6----------6----|
|----------------|----------------|----------------|----------------|
|----------------|----------------|----------------|----------------|
|----------------|----------------|----------------|----------------|

(Guitarra 2)

|----------------|----------------|----------------|----------------|
|----------------|----------------|----------------|----------------|
|----------------|----------------|4---------------|----------------|
|4---------------|2---------------|4---------------|4---------------|
|4---------------|2---------------|2---------------|4---------------|
|2---------------|0---------------|----------------|2---------------|

(Guitarra 1)

|------9---------|------7---------|------7---------|----------------|
|---10---10----10|---9----9-----7-|--------7-------|----------------|
|9----------9----|9----------9----|---8-------8----|7---------------|
|----------------|----------------|9-------------9-|7---------------|
|----------------|----------------|----------------|----------------|
|----------------|----------------|----------------|----------------|

(Guitarra 2)

|----------------|----------------|----------------|----------------|
|----------------|----------------|----------------|----------------|
|2---------------|6---------------|4---------------|----------------|
|2---------------|6---------------|4---------------|0---------------|
|0---------------|4---------------|2---------------|0---------------|
|----------------|----------------|----------------|----------------|


Verse 2:
                                                                 (2x)

||----------------|----------------|----------------|----------------||
||----------------|----------------|----------------|----------------||
||----2-----2-----|----2-----2-----|----2-----2-----|----------------||
||--4-----4-----4-|--4-----4-----4-|--4-----4-------|--4-7-------7---||
||----------------|----------------|2-----2-----2---|----------9-----||
||2-----2-----2---|0-----0-----0---|--------------2/|3-----3/5-----3-||

(Guitarra 1)

||----------------|----------------|----------------|----------------||
||----------------|----------------|----------------|----------------||
||----2-----2-----|----2-----2-----|----2-----2-----|----------------||
||--4-----4-----4-|--4-----4-----4-|--4-----4-------|--4-7-------7---||
||----------------|----------------|2-----2-----2---|----------9-----||
||2-----2-----2---|0-----0-----0---|--------------2/|3-----3/5-----3-||

  . .   . .   .    . .   . .   .    . .   . .   .      .       .

(Guitarra 1)

|----------------|----------------|----------------|----------------|
|----------------|----------------|----------------|----------------|
|----------------|----------------|----------------|----------------|
|4-------------7-|--------------7/|9-----------9---|4---------------|
|4-------4-4-4-7-|------------7-7/|9---------9-9-9-|4-------------4-|
|2-------2-2-2-5-|------------5-5/|7---------7-7-7-|2-------------2-|

         . . .                .              .   .                .
                                                                        (2x)

|----------------|----------------|----------------||-----------------------||
|----------------|----------------|----------------||-----------------------||
|----------------|----------------|----------------||-----------------------||
|4-------------7-|--------------7/|9-----------9---||12-12-12-12-12-12-12-11||
|4-------4-4-4-7-|------------7-7/|9---------9-9---||12-12-12-12-12-12-12-11||
|2-------2-2-2-5-|------------5-5/|7---------7-7---||10-10-10-10-10-10-10-9-||

         . . .                .              .

Chorus:

|------9---------|------7---------|------7---------|------5---------|
|---10---10----10|---9----9-----7-|---7----7-----7-|---7----7-----5-|
|9----------9----|9----------9----|8----------8----|6----------6----|
|----------------|----------------|----------------|----------------|
|----------------|----------------|----------------|----------------|
|----------------|----------------|----------------|----------------|



|----------------|----------------|----------------|----------------|
|----------------|----------------|----------------|----------------|
|----------------|----------------|4---------------|----------------|
|4---------------|2---------------|4---------------|4---------------|
|4---------------|2---------------|2---------------|4---------------|
|2---------------|0---------------|----------------|2---------------|



|------9---------|------7---------|------7---------|----------------|
|---10---10----10|---9----9-----7-|--------7-------|----------------|
|9----------9----|9----------9----|---8-------8----|7---------------|
|----------------|----------------|9-------------9-|7---------------|
|----------------|----------------|----------------|----------------|
|----------------|----------------|----------------|----------------|



|----------------|----------------|----------------|----------------|
|----------------|----------------|----------------|----------------|
|2---------------|6---------------|4---------------|----------------|
|2---------------|6---------------|4---------------|0---------------|
|0---------------|4---------------|2---------------|0---------------|
|----------------|----------------|----------------|----------------|


Solo 1:
                                                                 (2x)

||----------------|----------------|----------------|----------------||
||----------------|----------------|----------------|----------------||
||----------------|----------------|4---------------|----------------||
||4---------------|2---------------|4---------------|5-----5-7-----5-||
||4---------------|2---------------|2-------------4-|5-----5-7-----5-||
||2---------------|0---------------|--------------2-|3-----3-5-----3-||



|----------------|----------------|----------------|----------------|
|--10------------|----------------|----------------|----------------|
|11--11911-------|-----6----------|--------/6-4----|----------------|
|--------/11-----|9-79----x/4-----|-----4-4--------|----------------|
|----------------|------9---------|4h5-5-----------|----------------|
|----------------|----------------|----------------|----------------|


Verse 3:


|----------------|----------------|----------------|----------------|
|----------------|----------------|----------------|----------------|
|----------------|----------------|----------------|----------------|
|6-------------9-|--------------9/|11----------11--|6---------------|
|6-------6-6-6-9-|------------9-9/|11--------111111|6-------------6-|
|4-------4-4-4-7-|------------7-7/|9---------9-9-9-|4-------------4-|

         . . .                .              .   .                .
                                                                 (2x)

|----------------|----------------|----------------||-----------------------||
|----------------|----------------|----------------||-----------------------||
|----------------|----------------|----------------||-----------------------||
|6-------------9-|--------------9/|11----------11--||14-14-14-14-14-14-14-13||
|6-------6-6-6-9-|------------9-9/|11--------1111--||14-14-14-14-14-14-14-13||
|4-------4-4-4-7-|------------7-7/|9---------9-9---||12-12-12-12-12-12-12-11||

         . . .                .              .


||------9---------|------7---------|------7---------|------5---------|
||---10---10----10|---9----9-----7-|---7----7-----7-|---7----7-----5-|
||9----------9----|9----------9----|8----------8----|6----------6----|
||----------------|----------------|----------------|----------------|
||----------------|----------------|----------------|----------------|
||----------------|----------------|----------------|----------------|



||----------------|----------------|----------------|----------------|
||----------------|----------------|----------------|----------------|
||----------------|----------------|4---------------|----------------|
||4---------------|2---------------|4---------------|4---------------|
||4---------------|2---------------|2---------------|4---------------|
||2---------------|0---------------|----------------|2---------------|


                                                                (2x)

|------9---------|------7---------|------7---------|----------------||
|---10---10----10|---9----9-----7-|--------7-------|----------------||
|9----------9----|9----------9----|---8-------8----|7---------------||
|----------------|----------------|9-------------9-|7---------------||
|----------------|----------------|----------------|----------------||
|----------------|----------------|----------------|----------------||

|                |                |                |                ||

(Guitar2)--------|----------------|----------------|----------------||
|----------------|----------------|----------------|----------------||
|2---------------|6---------------|4---------------|----------------||
|2---------------|6---------------|4---------------|0---------------||
|0---------------|4---------------|2---------------|0---------------||
|----------------|----------------|----------------|----------------||


Solo 2:
(Guitarra 1)

|--------------------------------|--------------------------------|
|--------------------------------|--------------------------------|
|--------------------------------|--------------------------------|
|4-------------------------------|2-------------------------------|
|4-------------------------------|2-------------------------------|
|2-------------------------------|0-------------------------------|

(Guitarra 2)

|--------------------------------|--------------------------------|
|1412--14----1412--14------------|14----1412----------------------|
|--------11----------11----------|--1111----------14----13--------|
|--------------------------------|----------------------------14--|
|--------------------------------|--------------------------------|
|--------------------------------|--------------------------------|



|1412--14----1412--14------------|14----14------------------------|
|--------14----------14----------|--1414--12------15----14--------|
|--------------------------------|----------------------------14--|
|--------------------------------|--------------------------------|
|--------------------------------|--------------------------------|
|--------------------------------|--------------------------------|


(Guitarra 1)

|--------------------------------|--------------------------------|
|--------------------------------|--------------------------------|
|4-------------------------------|--------------------------------|
|4-------------------------------|5-----------5---7-----------5---|
|2-------------------------------|5-----------5---7-----------5---|
|--------------------------------|3-----------3---5-----------3---|

(Guitarra 2)

|--------------------------------|--------------------------------|
|1514--15----1512--15------------|------1215------14----12--------|
|--------11----------11----------|----11----------------------14--|
|--------------------------------|--12----------------------------|
|--------------------------------|14------------------------------|
|--------------------------------|*Sweep--------------------------|


(Guitarra 1)

|--------------------------------|--------------------------------|
|--------------------------------|--------------------------------|
|--------------------------------|--------------------------------|
|4-------------------------------|2-------------------------------|
|4-------------------------------|2-------------------------------|
|2-------------------------------|0-------------------------------|

(Guitarra 3)

|--------------------------------|--------------------------------|
|1412--14----1412--14------------|14----1412----------------------|
|--------11----------11----------|--1111----------14----13--------|
|--------------------------------|----------------------------14--|
|--------------------------------|--------------------------------|
|--------------------------------|--------------------------------|



|1412--14-----1412-14------------|14----14------------------------|
|--------14----------14----------|--1414--12------15----14--------|
|--------------------------------|----------------------------14--|
|--------------------------------|--------------------------------|
|--------------------------------|--------------------------------|
|--------------------------------|--------------------------------|


Outro:
(Guitarra 2)

|--------------------------------|
|1514----------------------------|
|------1413----------------------|
|------------1412----------------|
|------------------1412--11-12-14|
|--------------------------------|



|----------------|----------------|----------------|----------------|
|----------------|----------------|----------------|----------------|
|----2-----2-----|----2-----2-----|----2-----2-----|----------------|
|--4-----4-----4-|--4-----4-----4-|--4-----4-------|--4-7-------7---|
|----------------|----------------|2-----2-----2---|----------9-----|
|2-----2-----2---|0-----0-----0---|--------------2/|3-----3/5-----3-|


(Guitarra 1)

|----------------|----------------|----------------|----------------|
|----------------|----------------|----------------|----------------|
|----------------|----------------|----------------|----------------|
|4---------------|----------------|----------------|----------------|
|4---------------|----------------|----------------|----------------|
|2---------------|----------------|----------------|----------------|

(Guitarra 2)

|----------------|----------------|----------------|----------------|
|----------------|----------------|----------------|----------------|
|----------------|----------------|----------------|----------------|
|----------------|----------------|----------------|----------------|
|\9--------------|----------------|----------------|----------------|
|----------------|----------------|----------------|----------------|



|----------------|----------------|2---------------|----------------|
|----------------|----------------|2---------------|----------------|
|----------------|----------------|2---------------|----------------|
|----0---0-------|----0---0-------|4---------------|----------------|
|--4---4---4---4-|--4---4---4---4-|4---------------|----------------|
|2-----------2---|2-----------2---|2---------------|----------------|

|                |                |                |                |
(Guitar2)--------|----------------|----------------|----------------|
|----------------|----------------|----------------|----------------|
|----------------|----------------|9b11------------|----------------|
|----------------|----------------|----------------|----------------|
|----------------|----------------|----------------|----------------|

Other versions of A Tout Le Monde

A tout le mondeChords
A tout le mondeTabs
A tout le monde (Ver. 3)Tabs

Almost there ...

Sign in to get your own page with links to favourite songs and more. You are just one click away...

Login with Facebook Login with Google