Log in

One click and you are in

Login with Facebook Login with Google

Why sign up and log in

Guitar Tabs Explorer
Megadeth guitar tabs for 502

Guitar tabs

Standard Tuning


Intro
------------------------------------
------------------------------------
------------------------------------
------------------------------------
-0-000-000000000000000000000012--11-
------------------------------------
-----------------------------------------
-----------------------------------------
-----------------------------------------
-----------------------------------------
-000000000012--11--8--10--11p10p8-12--11-
-----------------------------------------


Verse
------------------------------------
------------------------------------
2-------5-------4-------5---7---2---
2-------5-------4-------5---7---2---
0-------3-------2-------3---5---0---
------------------------------------


Pre-Chorus
---------------------------------------
---------------------------------------
---------------------------------------
-4-4-4-5---4---------------------------
-4-4-4-5---4-------2-5p4p2-5p4p2-4p3p2-
-2-2-2-3---2---------------------------

Chorus
-----------------------------------------------------------------
-----------------------------------------------------------------
-4-----444-----44--------------------------------7-----777-----77
-4-----444-----445-----555-----554-----444-----447-----777-----77
-2-----222-----225-----555-----554-----444-----445-----555-----55
-----------------3-----333-----332-----222-----22----------------

End of Chorus Riff
-------------------
-------------------
-------------------
-------------------
-9--8--7--9--4--5--
-7--6--5--7--2--3--


Solo Rhythm
----------------------------------------------------------------------
----------------------------------------------------------------------
----------------5----------------4----------------5--------7-7--------
----------------5----------------4----------------5--------7-7------7-
---000000000000-3---000000000000-2---000000000000-3---0000-5-5-0000-7-
--------------------------------------------------------------------5-

Car Effects part
-------------------------------------------
-------------------------------------------
-------------------------------------------
--14-xxx-14---12---12-14-xxx15-------------
--14-xxx-14---12---12-14-xxx15-------------
-------------------------------------------


Solo Rhythm
-----------------------------------------------------------------
-----------------------------------------------------------------
-----------------------------------------------------------------
-7---7---7---7---9---9---9---9--10--10--10--10---12---12---121110
-7---7---7---7---9---9---9---9--10--10--10--10---12---12---121110
-5---5---5---5---7---7---7---7---8---8---8---8---10---10---10-9-8


Outro
-------------
-------------
-------------
-7-6-5-7-----
-5-4-3-5-6-7-
---------4-5-

Almost there ...

Sign in to get your own page with links to favourite songs and more. You are just one click away...

Login with Facebook Login with Google