Human Remains by Tom Mcrae

Human Remains chords by Tom Mcrae

Guitar chords with lyrics

Song: Human Remains

Artist: Tom Mcrae

Album: Just like Blood

Transcribed by: Jeff Chester (jefferyryanc@hotmail.com)



This is all my own work.



CAPO Fret 5 ^Ö All chords are relative to the capo.

This is a very simple song which sounds very beautiful, just like most
Tom songs.

It only has three chords with some slight variations thrown in for
colour. They are:



  D    G6sus2   Em



----2---------0--------0-----------------------------------------------3--------
-3--------0-----------------------------------------------2---------2--------0--
---------------------------------------------0---------0--------2---------------
------------------------------------------x--------2----------------------------
-----------------------------3--------0-----------------------------------------
--





The verses are played D G6sus2 D G6sus2 and so on. Tom uses a picking
pattern along these lines:



-------------2-----2-----------0------0---------------------------------------3-
--3-----3-------3---3------3-----------------------------------2-------2-----2--
--2-------2------2------------------------------0-------------------------------
--------------------------------------------------------------------------------
-----------------------------------------3--------------------------------------
--



The prechorus section uses Em D Em D Em D G6sus2 . Fiddle around with
variations of arpeggios and you will get something close.



Notes: Sometimes you might want to play with the D and switch to a Dsus2
and go to a straight Gsus2 but it sounds fine without it. You could even
strum these chords if you wanted to. Hope this helps someone out there.
Send all comments to Jeff Chester www.geocities.com/jefferyryanc

Find guitar tabs and chords

A B C D E F G H I J K L M N O P Q R S T U V W X Y Z #