Log in

One click and you are in

Login with Facebook Login with Google

Why sign up and log in

Guitar Tabs Explorer
Matti Caspi guitar tabs for I cu

Guitar tabs with lyrics

ì÷çú àú éãé áéãê - ñåìå
      úåòú÷ ò"é àìåï ãøåøé
àôøéì 1997
droriain@netvision.net.il
                                                 äùéø (åäñåìå) áôä îéðåø
              A chord diagramF minorFm  A chord diagramGdimGdim Fm/Ab    F7/A       A chord diagramBbmBbm            A chord diagramBdimBdim
E-----------------------------------------------------------------------
B---------------------------------------------------------8^------8-----
G----------8--10-----8h10\3--10/11--10--8--10------8--10------10--------
D---8--10--------------------------------------11-----------------------
A-----------------------------------------------------------------------
E-----------------------------------------------------------------------


           Fm/C       A chord diagramDbDb                A chord diagramDdimDdim       Fm/Eb
E-----------------------------------------------------------------------
B---8h9p8----------8--8^------8--8h9p8----------8--8^------8--8---------
G--------------10---------10----------------10---------10---------------
D----------10---------------------------10------------------------------
A-----------------------------------------------------------------------
E-----------------------------------------------------------------------


    A chord diagramEdimEdim  A chord diagramF minorFm                      A chord diagramF7F7                     A chord diagramBbmBbm
E-----------------------------------------------------------------------
B---9--8----------------------------------------------------------------
G---------10--10-----------------------------------10\9--8~~~------8----
D-----------------10--10------8h9h10--10/11/12/13--------------10-------
A-------------------------11--------------------------------------------
E-----------------------------------------------------------------------


    Fm/A       A chord diagramC7C7                      A chord diagramF minorFm                  A chord diagramDbDb
E-----------------------------------------------------------------------
B-----------------------------------------------------------------------
G-----------------------------------------------------------------------
D---11--8--11--10------8--9h10--8-------------------10--8---------------
A------------------11--------------10--8-----8--11---------11--10h11----
E-----------------------------------------8-----------------------------


E-----------------------------------------------------------------------
B-----------------------------------------------------------------------
G-----------------------------------------------------------------------
D-----------------------------------------------------------------------
A---p10--8--------------------------------------------------------------
E-----------------------------------------------------------------------





==                       TABLATURE EXPLANATION                        ==


----------                ----------                ----t---
----5h8--- Hammeron       ----(8)--- Ghost          ----6--- Tap
----------                ---------- Note           --------
----5p8--- Pulloff        ----------                --------

----------                ----------                -----p--
----5/8--- Slide Up       -----x---- Dead           -----7-- Pop
----------                ---------- Note           --s-----
----5\8--- Slide Down     ----------                --5----- Slap

----------                ||------|| Repeat         --------
----5~~~-- Vibrato        ||*----*||                ---5^--- Bend
----------                ||*----*||                --------

----------                ||------||                --------

----------                ----------                --------
-4:------- Time           ----------                --------
-4:------- Signature      ----------                --------
----------                ----------                --------

Almost there ...

Sign in to get your own page with links to favourite songs and more. You are just one click away...

Login with Facebook Login with Google