Log in

One click and you are in

Login with Facebook Login with Google

Why sign up and log in

Guitar Tabs Explorer
Dave Matthews Band tabs for The best of whats around

Guitar tabs

"The Best of What's Around"

from Dave Matthews Band
Under the Table and Dreaming
Verse 1

Hey my friend, it seems your eyes are troubled.....

part 1
--------- ------------ ------------------ -----5----
-------0- ----------0- -1--1--1------0--- -----3----
-5-----0- -2-----7--0- -0--0--0----5---0- -2---0----
~7-----0- -3-----0--0- -2-----2-~7------- -3--~4----
-0------- -3---------- -3--2--0---------- -3--~5----
------8-- -1---~10---- ------------------ -1--------
part 2
--------- ------------ ------------------ ----~5----
--------- ------------ -1--1--1---------- ----~3----
----5-0-- ------------ -0--0--0---------- -2---0----
~7--7---- ~-7--------- -2-----2---3------ -3--~4----
--7-7-8-- ~-8--------- -3--2--0----3----- -3--~5----
------8-- ~10--------- ------------------ -1--------

[Figure 1                                          ]
part 1
--------- ------------ ------------------ -----5----
-------0- ----------0- -1--1--1------0--- -----3----
-5-----0- -2-----7--0- -0--0--0----5---0- -2---0----
~7-----0- -3-----0--0- -2-----2-~7-7---0- -3---4----
-7------- -3---------- -3--2--0---------- -3---5----
------8-- -1---~10---- ------------------ -1--------
part 2
--------- ------------ ------------------ ----~5----
--------- ------------ -1--1--1---------- ----~3----
----5---- -2---------- -0--0--0------5--- -2---0----
~7--7-7-0 -3---~-7---- -2-----2-~7-7-7-0- -3--~4----
--7-7-7-0 -3---~-8---- -3--2--0----7---0- -3--~5----
------8-0 -1---~10---- ----------------0- -1--------

Chorus 1

See you and me.....


[Figure 2                                    ]
                                 (2/4 bar)
-(5)--(4)--- (2)------ -5------- (0)---(0)-
-(5)---5---- -2--5(5)- -3---2--- -0-----0--
--6----6---- -2--2(6)- -0---2--- -4-----4--
--7----6---- -4--2(6)- -4---2--- -2-----2--
--7----4---- ----4(4)- -5---0--- -2-----2--
--5--------- -2--0(0)- --------- -0--4--4--

repeat Figure 2


------------------
-1----------------
-2----------------  repeat this bar
-2----------------
-0--------------0-
----3--2--1-~7~---


Bridge

Turns out not where........

Figure 3
-----4--- --------
-----5--- -3------
-6---4--- -4---4--
-7---6--- -4---5--
-7---4--- -2---5--
-5------- -----3--


Figure 4
------------------
-1----------------
-2----------------  repeat this bar
-2----------------
-0----------------
----3--2--1-~10~--

play figure 3
play figure 4

...and if you hold....


Verse 2

...to what you think is your thing...

(play same as Verse 1)


Chorus 2

Seeing things from a better side.....

(play same as Chorus 1)


Bridge

Turns out not where......

Figure 3 and then

Figure 4 - 4 times


Sax solo

Figure 1 - 2 times


Chorus

See you and me......

play (same as Chorus 1)


Bridge

Figure 3
Turns out not where........

Figure 4 - 2 times
....that really matters, hey.....

Figure 3
And hurts not much.....

Figure 4 - 2 times
.....when you're around. Hey, la la...


Outro

Oh, oh, hey, la

Figure 2 - 3 times then fade


The End

Scott Taylor
School of Music
The Florida State University
http://www.geocities.com/sequenzax
AOL IM: tromba1B
"Eat, drink, and be merry, for tomorrow we shall die." - Epicurus

Other versions of The Best Of Whats Around

The best of whats aroundChords

Almost there ...

Sign in to get your own page with links to favourite songs and more. You are just one click away...

Login with Facebook Login with Google