Log in

One click and you are in

Login with Facebook Login with Google

Why sign up and log in

Guitar Tabs Explorer
Dave Matthews Band tabs for One sweet world

Guitar tabs

One Sweet World intro
This is the intro that dave plays at most of his live shows.


E-----------------------------------------------------------------
B-------------6----------4-----------------------------------1----
G------8-----------------------------3-0-----------------------0--
D--------8-------8---5-----5h6-5---3---------3-----3---0---2------
A----6------5------5---3---------1---------1---1-0---0---3--------
E----------------------------------------4------------------------

E-----------------------------------------------------------------
B-----------------------------------------------------------------
G------2-4-5---3--------------------------------------------------
D----------------3-0-----3-0-----3--------------------------------
A----2-------1---------3-------3---6------6/8-6-------------------
E--------------------1-------4--------6/8-------------------------

Repeat several times and begin verse

Tabbed by Lee Miller


Here is the verse and chorus for all versions of one sweet world by DMB:


  repeat a couple times
e---------------------------------------------------------------
b---------------------------------------------------------------
g-8--7--5-------------5/7---7-x-5-------------------------------
d----8--6---------3/5---------x-6-------------------------------
a-------------5-3-----------------------------------------------
e-8--6--4---4-----------------x-4-------------------------------

Verse
e---------------------------------------------------------------
b---------------------------------------------------------------
g-------7--8h10-10-xxx-xx---------------------------------------
d-----8-8--8h10-10-xxx-xx------repeat---------------------------
a---6--------------xxx-xx---------------------------------------
e---------6-----------------------------------------------------

so let us sleep....

e---------------------------------------------------------------
b---------------------------------------------------------------
g--------5/7--7-x-5--7-----------5/7--7--x-5--------------------
d----3/5--------x-6--8--------3/5--------x-6--------------------
a--3------------------------3-----------------------------------
e---------------x-4--6-------------------x-4--------------------

take all that....

e---------------------------------------------------------------
b--------------6--8---------------------8----6------------------
g--8--7--8-----7--8--7-----8--7--5------8----7------------------
d-----8--------------8--------8--6------------------------------
a--------------5--6-----------------4/6-6--5-5------------------
e--8--6--8-----------6-----8--6--4------------------------------

tabbed by Lee Miller
what's up 2BOER
math class sucks
bad kids rule
(peter, degropt, scary kari, travis)

Other versions of One Sweet World

One sweet world (Ver. 2)Tabs

Almost there ...

Sign in to get your own page with links to favourite songs and more. You are just one click away...

Login with Facebook Login with Google