Search tabs and chords

Search for song, artist or band

Log in

One click and you are in

Login with Facebook Login with Google

Why sign up and log in

Guitar Tabs Explorer
Dave Matthews Band guitar tabs for Here on out acoustic

Here On Out Acoustic tab by Dave Matthews Band

Dave Matthews Band guitar tabs for Here on out acoustic

Guitar tabs with lyrics

Tuning: Standard (E chord diagramEE A chord diagramAA D chord diagramDD G chord diagramGG B chord diagramBB E chord diagramEE)

Difficulty: Intermediate

Intro:

e|-------------------------|-----------------------------|
B|--3--3--3--3--3--3--3--3-|--5p3--3--3--3--5p3--3--3--3-|
G|--2--2--2--2--2--2--2--2-|--2----2--2--2--2----2--2--2-|
D|-0--0--0--0--0--0--0--0--|-0----0--0--0--0----0--0--0--|
A|-------------------------|-----------------------------|
E|-------------------------|-----------------------------|
Verse 1:

e|-------------------------|-------------------------|-------------------------|
B|--3--3--3--3--3--3--3--3-|--3--3--3--3--3--3--3--3-|--3--3--3--3--3--3--3--3-|
G|--2--2--2--2--2--2--2--2-|--2--0--0--0--0--2--2--2-|--2--2--2--2--0--0--0--0-|
D|-0--0--0--0--------------|-------------------------|-------------------------|
A|----------------------4--|-4--------2--2--0--0-----|-------------0--0--4--4--|
E|-------------3--3--3-----|----2--2--------------0--|-0--2--2--3--------------|

Out of the corner of my eye   I caught you walk by        I chase you down

e|-------------------------|-------------------------|-------------------------|
B|--3--3--3--3--3--3--3--3-|--3--3--3--3--3--3--3--3-|--3--3--3--3--3--3--3--3-|
G|--2--2--2--2--2--2--2--2-|--2--0--0--0--0--2--2--2-|--2--2--2--2--0--0--0--0-|
D|-0--0--0--0--------------|-------------------------|-------------------------|
A|----------------------4--|-4--------2--2--0--0-----|-------------0--0--4--4--|
E|-------------3--3--3-----|----2--2--------------0--|-0--2--2--3--------------|

Is it okay if I call you mine   From here on out?      As if I could ever stop

e|-------------------------|-------------------------|-------------------------|
B|--3--3--3--3--3--3--3--3-|--3--3--3--3--3--3--3--3-|--3--3--3--3--3--3--3--3-|
G|--2--2--2--2--2--2--2--2-|--2--0--0--0--0--2--2--2-|--2--2--2--2--0--0--0--0-|
D|-0--0--0--0--------------|-------------------------|-------------------------|
A|----------------------4--|-4--------2--2--0--0-----|-------------0--0--4--4--|
E|-------------3--3--3-----|----2--2--------------0--|-0--2--2--3--------------|

You are light as a butterfly   As heavy as a rock       The bottom and the top

e|-------------------------|-------------------------|-------------------------|
B|--3--3--3--3--3--3--3--3-|--3--3--3--3--3--3--3--3-|--3--3--3--3--3--3--3--3-|
G|--2--2--2--2--2--2--2--2-|--2--0--0--0--0--2--2--2-|--2--2--2--2--0--0--0--0-|
D|-0--0--0--0--------------|-------------------------|-------------------------|
A|----------------------4--|-4--------2--2--0--0-----|-------------0--0--4--4--|
E|-------------3--3--3-----|----2--2--------------0--|-0--2--2--3--------------|

Is it okay if I call you mine    From here on out?     As if I could ever stop

Chorus 1:

e|-------------------------|-------------------------|-------------------------|
B|--3--3--3--3--3--3--3--3-|-----3-----3-----3-----3-|-----2-----2-----2-----2-|
G|--2--2--2--2--2--2--2--2-|--0-----0-----0-----0--0-|--2-----2-----2-----2--2-|
D|-0--0--0--0--0--0--0--0--|-------------------------|-------------------------|
A|-------------------------|-2--2--2--2--2--2--2--2--|-0--0--0--0--0--0--0--0--|
E|-------------------------|-3--3--3--3--3--3--3--3--|-------------------------|

                        And now I'm opened up I am strong and wild

e|-------------------------|-------------------------|-------------------------|
B|--3--3--3--3--3--3--3--3-|--3--3--3--3--3--3--3--3-|--3--3--3--3--3--3--3--3-|
G|--2--2--2--2--2--2--2--2-|--2--2--2--2--2--2--2--2-|--2--2--2--2--0--0--0--0-|
D|-0--0--0--0--------------|-------------------------|-------------------------|
A|-------------4--4--4--4--|-3--3--3--3--2--2--2--2--|-2--2--2--2--------------|
E|-------------------------|-------------------------|-------------3--3--3--3--|

                        Like a storm out the stars in my blood

e|-------------------------------------|
B|--3--3--3--3-----2-----2-----2-----2-|
G|--0--0--0--0--2-----2-----2-----2--2-|
D|-------------------------------------|
A|-------------0--0--0--0--0--0--0--0--|
E|-3--3--3--3--------------------------|

And it's all because of you, you my love


Verse 2:

e|-------------------------|-------------------------|-------------------------|
B|--3--3--3--3--3--3--3--3-|--3--3--3--3--3--3--3--3-|--3--3--3--3--3--3--3--3-|
G|--2--2--2--2--2--2--2--2-|--2--0--0--0--0--2--2--2-|--2--2--2--2--0--0--0--0-|
D|-0--0--0--0--------------|-------------------------|-------------------------|
A|----------------------4--|-4--------2--2--0--0-----|-------------0--0--4--4--|
E|-------------3--3--3-----|----2--2--------------0--|-0--2--2--3--------------|

Is it okay if I call you mine   From here on out?       As if I could ever stop

e|-------------------------|-------------------------|-------------------------|
B|--3--3--3--3--3--3--3--3-|--3--3--3--3--3--3--3--3-|--3--3--3--3--3--3--3--3-|
G|--2--2--2--2--2--2--2--2-|--2--0--0--0--0--2--2--2-|--2--2--2--2--0--0--0--0-|
D|-0--0--0--0--------------|-------------------------|-------------------------|
A|----------------------4--|-4--------2--2--0--0-----|-------------0--0--4--4--|
E|-------------3--3--3-----|----2--2--------------0--|-0--2--2--3--------------|

When you laugh, its like a light        That fills me up        'Cause you are my love

e|-------------------------|-------------------------|-------------------------|
B|--3--3--3--3--3--3--3--3-|--3--3--3--3--3--3--3--3-|--3--3--3--3--3--3--3--3-|
G|--2--2--2--2--2--2--2--2-|--2--0--0--0--0--2--2--2-|--2--2--2--2--0--0--0--0-|
D|-0--0--0--0--------------|-------------------------|-------------------------|
A|----------------------4--|-4--------2--2--0--0-----|-------------0--0--4--4--|
E|-------------3--3--3-----|----2--2--------------0--|-0--2--2--3--------------|

Like when I fell into your eyes I could not get out     And I could not get enough

e|-------------------------|-------------------------|-------------------------|
B|--3--3--3--3--3--3--3--3-|--3--3--3--3--3--3--3--3-|--3--3--3--3--3--3--3--3-|
G|--2--2--2--2--2--2--2--2-|--2--0--0--0--0--2--2--2-|--2--2--2--2--0--0--0--0-|
D|-0--0--0--0--------------|-------------------------|-------------------------|
A|----------------------4--|-4--------2--2--0--0-----|-------------0--0--4--4--|
E|-------------3--3--3-----|----2--2--------------0--|-0--2--2--3--------------|

Is it okay if I call you mine   From here on out?       As if I could ever stop


Chorus 2:

e|-------------------------|-------------------------|-------------------------|
B|--3--3--3--3--3--3--3--3-|-----3-----3-----3-----3-|-----2-----2-----2-----2-|
G|--2--2--2--2--2--2--2--2-|--0-----0-----0-----0--0-|--2-----2-----2-----2--2-|
D|-0--0--0--0--0--0--0--0--|-------------------------|-------------------------|
A|-------------------------|-2--2--2--2--2--2--2--2--|-0--0--0--0--0--0--0--0--|
E|-------------------------|-3--3--3--3--3--3--3--3--|-------------------------|

                             When I'm all used up       Old and breaking apart

e|-------------------------|-------------------------|-------------------------|
B|--3--3--3--3--3--3--3--3-|--3--3--3--3--3--3--3--3-|--3--3--3--3--3--3--3--3-|
G|--2--2--2--2--2--2--2--2-|--2--2--2--2--2--2--2--2-|--2--2--2--2--0--0--0--0-|
D|-0--0--0--0--------------|-------------------------|-------------------------|
A|-------------4--4--4--4--|-3--3--3--3--2--2--2--2--|-2--2--2--2--------------|
E|-------------------------|-------------------------|-------------3--3--3--3--|

Like a storm out the stars in my blood                  All because of you

e|-------------------------------------|
B|--3--3--3--3-----2-----2-----2-----2-|
G|--0--0--0--0--2-----2-----2-----2--2-|
D|-------------------------------------|
A|-------------0--0--0--0--0--0--0--0--|
E|-3--3--3--3--------------------------|

 you are my love


Verse 3:

e|-------------------------|-------------------------|-------------------------|
B|--3--3--3--3--3--3--3--3-|--3--3--3--3--3--3--3--3-|--3--3--3--3--3--3--3--3-|
G|--2--2--2--2--2--2--2--2-|--2--0--0--0--0--2--2--2-|--2--2--2--2--0--0--0--0-|
D|-0--0--0--0--------------|-------------------------|-------------------------|
A|----------------------4--|-4--------2--2--0--0-----|-------------0--0--4--4--|
E|-------------3--3--3-----|----2--2--------------0--|-0--2--2--3--------------|

Is it okay if I call you mine   From here on out?       As if I could ever stop


Bridge:

e|-------------------|-------------------|
B|--3--3--3--3--3--3-|--3--3--3--3--3--3-|
G|--2--2--2--2--2--2-|-------------------|
D|-0--0--0--0--0--0--|-4--4--4--4--4--4--|
A|-------------------|-2--2--2--2--2--2--|
E|-------------------|-------------------|

e|-------------------|-------------------|-------------------|-------------------|
B|--3--3--3--3--3--3-|--2--2--2--2--2--2-|-----3--------3----|-----3--------3----|
G|--0--0--0--0--0--0-|--2--2--2--2--2--2-|--4--4--4--4--4--4-|--4--4--4--4--4--4-|
D|-------------------|-------------------|--4-----4--4-----4-|--4-----4--4-----4-|
A|-2--2--2--2--2--2--|-0--0--0--0--0--0--|-2--2--2--2--2--2--|-2--2--2--2--2--0--|
E|-3--3--3--3--3--3--|-------------------|-------------------|-------------------|

And I want you to know

e|-------------------|-------------------|-------------------|-------------------|
B|--3--3--3--3--3--3-|--2--2--2--2--2--2-|-----3--------3----|-----3--------3----|
G|--0--0--0--0--0--0-|--2--2--2--2--2--2-|--4--4--4--4--4--4-|--4--4--4--4--4--4-|
D|-------------------|-------------------|--4-----4--4-----4-|--4-----4--4-----4-|
A|-2--2--2--2--2--2--|-0--0--0--0--0--0--|-2--2--2--2--2--2--|-2--2--2--2--2--0--|
E|-3--3--3--3--3--3--|-------------------|-------------------|-------------------|

I still need you so

e|-------------------|-------------------|-------------------|-------------------|
B|--3--3--3--3--3--3-|--2--2--2--2--2--2-|-----3--------3----|-----3-----3-------|
G|--0--0--0--0--0--0-|--2--2--2--2--2--2-|--4--4--4--4--4--4-|--4--4--4--4--4--4-|
D|-------------------|-------------------|--4-----4--4-----4-|--4-----4-----4--4-|
A|-2--2--2--2--2--2--|-0--0--0--0--0--0--|-2--2--2--2--2--2--|-2--2--2--2--2--0--|
E|-3--3--3--3--3--3--|-------------------|-------------------|-------------------|

I want you to know

e|-------------------|-------------------|-------------------|-------------------|
B|--3--3--3--3--3--3-|--2--2--2--2--2--2-|--3--3--3--3--3--3-|--3--3--3--3--3--3-|
G|--0--0--0--0--0--0-|--2--2--2--2--2--2-|--2--2--2--2--2--2-|--2--2--2--2--2--2-|
D|-------------------|-------------------|-------------------|-------------------|
A|-2--2--2--2--2--2--|-0--0--0--0--0--0--|-------------------|-------------------|
E|-3--3--3--3--3--3--|-------------------|-2--2--2--2--2--2--|-2--2--2--2--2--2--|

And I still need you so


Verse 4:

e|-------------------------|-------------------------|-------------------------|
B|--3--3--3--3--3--3--3--3-|--3--3--3--3--3--3--3--3-|--3--3--3--3--3--3--3--3-|
G|--2--2--2--2--2--2--2--2-|--2--0--0--0--0--2--2--2-|--2--2--2--2--0--0--0--0-|
D|-0--0--0--0--------------|-------------------------|-------------------------|
A|----------------------4--|-4--------2--2--0--0-----|-------------0--0--4--4--|
E|-------------3--3--3-----|----2--2--------------0--|-0--2--2--3--------------|

Is it okay if I call you mine   From here on out?       As if I could ever stop


Outro:

e|---------------------------|------------------------------|----------|
B|--3--3--3--3--5p3--3--3--3-|---5p3--3--3--3---5p3-3--3--3-|--3--3--3-|
G|--2--2--2--2--2----2--2--2-|---2----2--2--2---2---2--2--2-|--2--2--2-|
D|-0--0--0--0--0----0--0--0--|-0-----0--0--0--0----0--0--0--|-0--0--0--|
A|---------------------------|------------------------------|----------|
E|---------------------------|------------------------------|----------|

Almost there ...

Sign in to get your own page with links to favourite songs and more. You are just one click away...

Login with Facebook Login with Google