Log in

One click and you are in

Login with Facebook Login with Google

Why sign up and log in

Guitar Tabs Explorer
Dave Matthews Band tabs for Halloween

Guitar tabs with lyrics

"Halloween"

from Dave Matthews Band
Before These Crowded Streets

Figure 1 (this bar 4x's)
-------------------
-------------------
-------------------
----3-3----9-10-10-
-------------------
-1--1-1--7-7--8--8-

play Figure 1 again
Verse 1

Hey, little dreamer's eyes open.....

play Figure 1 - 4 times

w/Figure 2 (this bar 4x's)

--------5-5-5-5-5-5--
--------6-6-6-6-6-6--
--------5-5-5-5-5-5--
----3-3--------------
---------------------
-1--1-1--------------


Chorus

Darlin dreamin' in the night....

Figure 3
----- ----- ----- -----
----- ----- ----- -----
----- ----- ----- -----
-7--- -5--- -3--- -2---
-7--- -5--- -3--- -2---
-5--- -3--- -1--- -0---

repeat Figure 3

play Figure 1


Verse 2

Oh little dreamer eyes open and raving here.....

play Figures 1 and 2 - 2 times


Chorus

Hey we'll leave it all behind......

Figure 3 - 2 times


Bridge

Why do you run around here ......

Figure 4
-0---- -2----
-0---- -3----
-2---- -4----
-2---- -4----
-0---- -2----
------ ------

Figure 4 - 3 more times

Figure 1 - 2 times

.........Going away...


Outro

Why this lonely ......

Figure 3 - 6 times

Love is hell......
Figure 3 - 2 times

-----
-----
-----
-7---
-7---
-5---

ad lib - segue to "The Stone"
drums, Kronos Quartet, etc.


Scott Taylor
School of Music
The Florida State University
http://www.geocities.com/sequenzax
AOL IM: tromba1B
"Eat, drink, and be merry, for tomorrow we shall die." - Epicurus

Other versions of Halloween

HalloweenChords

Almost there ...

Sign in to get your own page with links to favourite songs and more. You are just one click away...

Login with Facebook Login with Google