Log in

One click and you are in

Login with Facebook Login with Google

Why sign up and log in

Guitar Tabs Explorer
Masuda Toshiro tabs for The raising fighting spirit

The Raising Fighting Spirit tab by Masuda Toshiro

Masuda Toshiro tabs for The raising fighting spirit

Guitar tabs

Copyright: Toshiro Masuda

Here are the most accurate tabs I could make for "The Raising Fighting Spirit".

Enjoy.
Part 1 (2x)
e------------------------------------------------------------------------------------------------------------------
B------------------------------------------------------------------------------------------------------------------
G------------------------------------------------7--6-------------------------------5-5--4-4-----------------------
D------------------------------------------------7--6-------------------------------5-5--4-4-----------------------
A-<slide>-------------p/2-0----------------------5--4---------------p/2-0-----------3-3--2-2-----------------------
E---------0-0-0-3-2-0-------3-5-3-2--0-0-0-3-2--------0-0-0-3-2-0---------3-5-3-2-0--------------------------------


Part 2 (2x)

e------------------------------------------------------------------------------------------------------------------
B------------------------------------------------------------------------------------------------------------------
G---9-999-9-999--7-777-7-777--9-999-9-999--7-777-7-777--5-555-5-555--7-777-7---------------------------------------
D---9-999-9-999--7-777-7-777--9-999-9-999--7-777-7-777--5-555-5-555--7-777-7---------------------------------------
A---7-777-7-777--5-555-5-555--7-777-7-777--5-555-5-555--3-333-3-333--5-555-5-<slide>--------------p/2-0------------
E-------------------------------------------------------------------------------------0-0-0-3-2-0-------3-5-3-2-0--


Part 3

e------------------------------------------------------------------------------------------------------------------
B------------------------------------------------------------------------------------------------------------------
G------------------------------------------------------------------------------------------------------------------
D---------------------------7-----7------9-----9------10----10------9-9-9-9----------------------------------------
A---3(16x)--2(8x)-----------7-----7------9-----9------10----10------7-7-7-7----------------------------------------
E------------------0-2-3-4--5-555-5-555--7-777-7-777---8-888-8-888-------------------------------------------------

e------------------------------------------------------------------------------------------------------------------
B------------------------------------------------------------------------------------------------------------------
G------------------------------------------------------------------------------------------------------------------
D---2--4--5--5---7--5--12--9----2--4--5--5---10--12--9-9-9-9-------------------------------------------------------
A---2--4--5--5---7--5--12--9----2--4--5--5----8--12--7-7-7-7-------------------------------------------------------
E---0--2--3--3---5--3--10--7----0--2--3--3----8--10----------------------------------------------------------------


Final Part


e------------------------------------------------------------------------------------------------------------------
B------------------------------------------------------------------------------------------------------------------
G------------------------------------------------7--6-------------------------------5-5--4-4-----------------------
D------------------------------------------------7--6-------------------------------5-5--4-4-----------------------
A-<slide>-------------p/2-0----------------------5--4---------------p/2-0-----------3-3--2-2-----------------------
E---------0-0-0-3-2-0-------3-5-3-2--0-0-0-3-2--------0-0-0-3-2-0---------3-5-3-2-0--------------------------------


e------------------------------------------------------------------------------------------------------------------
B------------------------------------------------------------------------------------------------------------------
G------------------------------------------------7--6--------------------------------5-5--4-4-4-4-4-4-4-4----------
D------------------------------------------------7--6--------------------------------5-5--4-4-4-4-4-4-4-4----------
A-<slide>-------------p/2-0----------------------5--4---------------p/2-0------------3-3--2-2-2-2-2-2-2-2----------
E---------0-0-0-3-2-0-------3-5-3-2--0-0-0-3-2--------0-0-0-3-2-0---------3-5-3-2-0--------------------------------

Almost there ...

Sign in to get your own page with links to favourite songs and more. You are just one click away...

Login with Facebook Login with Google