Search tabs and chords

Search for song, artist or band

Log in

One click and you are in

Login with Facebook Login with Google

Why sign up and log in

Guitar Tabs Explorer
Marilyn Manson guitar chords for 1996

Guitar chords with lyrics

song - 1996

artist/group - marilyn manson

tabs by - mark noland

ok this has to be the easiest song on the planet,
the difficult part is the struming its 2 beat then a
slight gap and a beat .

its best played with heavy distorsion (over drive up)
and should be regarded as sliding up and down the fret
board . no complex chords , no fancy cross picking
just slide your 4th finger up and come down on your
index finger.

the intro
this is just total garble .so dont worry if it sounds
shit.its meant to.i suggest this,

e-----------------------------------------------------
a-----------------------------------------------------
d-9-7-6-7-6-8-7-6-7-9---------------------------------
g-9-7-6-7-6-8-7-6-7-9---------------------------------
b-----------------------------------------------------
e-----------------------------------------------------

then the repeating slide starts

e-----------------------------------------------------
a-----------------------------------------------------
d-3-3-3-6-6-6-9-9-9-7-6-------------------------------
g-3-3-3-6-6-6-9-9-9-7-6-------------------------------
b-----------------------------------------------------
e-----------------------------------------------------

then its just more garble loosely based on the above
slide.

e-----------------------------------------------------
a-----------------------------------------------------
d-3-6-9-7--3-6-1-2-3----------------------------------
g-3-6-9-7--3-6-1-2-3----------------------------------
b-----------------------------------------------------
e-----------------------------------------------------

and thats it.
now ive read tabs that dont make any sense to so if
you
think this is wrong please correct me.
my email is hollow_corpse@yahoo.com
yaaawn....ive got more but this is boring me ....
i'll write em later or something
-mark-

Other versions of 1996

1996Tabs
1996 (Ver. 2)Tabs

Almost there ...

Sign in to get your own page with links to favourite songs and more. You are just one click away...

Login with Facebook Login with Google