Log in

One click and you are in

Login with Facebook Login with Google

Why sign up and log in

Guitar Tabs Explorer
Man Or Astro Man tabs for Transmissions from venus

Transmissions From Venus tab by Man Or Astro Man

Man Or Astro Man tabs for Transmissions from venus

Guitar tabs

Tabbed by Brian (Ansigod) McCall <bpmccal@hubcap.clemson.edu>

TRANSMISSIONS FROM VENUS - by Man...or Astro-man?
   available on Project Infinity

Open song with an open A chord diagramE MajorE |022100|, heavy on the tremolo bar.

*1
Note: I'm just tabbing out the riff's pattern.  It's impossible to tab
      every time Starcrunch nails those strings!

G1

|---------------------------------------------------------------------
|---------------------------------------------------------------------
|---------------------------------------------------------------------
|---------------------------------------------------------------------
|---------7-7-6-6-----5-5-4-4-------------7-7-6-6-----5-5-4-4---------
|-0-0-0-0---------7-7---------5-5-4-4-0-0---------7-7---------5-5-4-4-

|---------------------------------------------------------------------
|---------------------------------------------------------------------
|---------------------------------------------------------------------
|---------------------------------------------------------------------
|-----------------------------------------7-7-6-6-----5-5-4-4---------
|-5-5-7-8-5-5-7-8-5-5-7-8-5-5-7-8-0-0-0-0---------7-7---------5-5-4-4-

Transition

|-77-7-7-7-7-7-7-7-7-8-8-8-8-8-8-8-8----------------------------------
|-77-7-7-7-7-7-7-7-7-8-8-8-8-8-8-8-8----------------------------------
|-88-8-8-8-8-8-8-8-8-9-9-9-9-9-9-9-9----------------------------------
|-99-9-9-9-9-9-9-9-9-1010101010101010---------------------------------
|-99-9-9-9-9-9-9-9-9-1010101010101010---------------------------------
|-77-7-7-7-7-7-7-7-7-8-8-8-8-8-8-8-8----------------------------------

*2

|---------------------------------------------------------------------
|-------8------------10-----------------8--------------8--------------
|----9----9-------9------9-----------9----9---/9--9--9---9------------
|-9---------9-10-----------10--99-9---------9-/10-10-10----10-...-----
|---------------------------------------------------------------------
|---------------------------------------------------------------------

I don't have the rest of that riff down 100%...sorry.

*3 (Outro)
    ^                     ^                      ^   ~~~~
|---------------------------------------------------------------------
|---------------------------------------------------------------------
|---------------------------------------------------------------------
|---------------------------------------------------------------------
|---------------3--3-3----------------3--3-3--------------------------
|-0---0-3-3-(0)---------0---0-3-3-(0)-------...0----------------------

Almost there ...

Sign in to get your own page with links to favourite songs and more. You are just one click away...

Login with Facebook Login with Google