Log in

One click and you are in

Login with Facebook Login with Google

Why sign up and log in

Guitar Tabs Explorer
The Mamas And The Papas bass tabs for Trip stumble and fall

Trip Stumble And Fall bass tab by The Mamas And The Papas

The Mamas And The Papas bass tabs for Trip stumble and fall

Bass tabs

Tuning: EADG

G|----------------------------------------------------------------|
D|----------------------------------------------------------------|
A|5-----------5---5---5-------5-----------------------------------|
E|--------------------------------3-----------3---3---3-------3---|

G|----------------------------------------------------------------|
D|----------------------------------------------------------------|
A|6-----------6---6---6-------6---5-----------5---5---5-------5---|
E|----------------------------------------------------------------|

0:08

G|----7---10----------9---12------12----------9-------------------|
D|8---------------10------------------12--------------10----------|
A|----------------------------------------10--------------10--8---|
E|----------------------------------------------------------------|

G|----7---10----------9---12------8-----------6-------5-----------|
D|8---------------10------------------8-------------------8---5---|
A|----------------------------------------6-----------------------|
E|----------------------------------------------------------------|

0:17

G|----------------------------------------------------------------|
D|5-------5-------5-------5-----------------------------------9---|
A|----------------------------5---7-------7-------7-------7-------|
E|----------------------------------------------------------------|

G|----------------------------------------------------------------|
D|10------10------10------10--9---7-------7-------7-------7-------|
A|------------------------------------------------------------7---|
E|----------------------------------------------------------------|

G|--------------------------------|
D|7-------------------------------|
A|--------------------------------|
E|--------------------------------|

G|----10--------------12--------------10--------------12----------|
D|8-----------------------12------8-----------------------12------|
A|--------8---10--------------------------8---10------------------|
E|----------------------------------------------------------------|

0:30

G|----7---10----------9---12------12----------9-------------------|
D|8---------------10------------------12--------------10----------|
A|----------------------------------------10--------------10--8---|
E|----------------------------------------------------------------|

G|----7---10----------9---12------8-----------6-------5-----------|
D|8---------------10------------------8-------------------8---5---|
A|----------------------------------------6-----------------------|
E|----------------------------------------------------------------|

0:38

G|----------------------------------------------------------------|
D|5-------5-------5-------5-----------------------------------9---|
A|----------------------------5---7-------7-------7-------7-------|
E|----------------------------------------------------------------|

G|----------------------------------------------------------------|
D|10------10------10------10--9---7-------7-------7-------7-------|
A|------------------------------------------------------------7---|
E|----------------------------------------------------------------|

G|--------------------------------|
D|7-------------------------------|
A|--------------------------------|
E|--------------------------------|

G|--------------------9-------------------------------9-----------|
D|9-------9---7-----------7-------9-------9---7-----------7---9---|
A|----9-----------------------7-------9---------------------------|
E|----------------------------------------------------------------|

0:53

G|----------------------------------------------------------------|
D|----------------------------9---10------10------10------10------|
A|7-------7-------7-------7---------------------------------------|
E|----------------------------------------------------------------|

G|----------------------------------------------------------------|
D|9-------9-------9-------9-------------------------------9-------|
A|----------------------------9---7-------7-------7-----------7---|
E|----------------------------------------------------------------|

G|----------------------------------------------------------------|
D|----------------------------8-----------------------------------|
A|6-------6-------6-------6-------6-------6-------6-------6-------|
E|----------------------------------------------------------------|

G|----------------------------------------------------------------|
D|----------------------------------------------------------------|
A|5-------5-------5-----5-----------------------------------------|
E|----------------------------------------------------------------|

G|------------------------------------------------------------------------------------|
D|------------------------------------------------------------------------------------|
A|------------------------------------------------------------------------------------|
E|------------------------------------------------------------------------------------|

1:14

G|----7---10----------9---12------12----------9-------------------|
D|8---------------10------------------12--------------10----------|
A|----------------------------------------10--------------10--8---|
E|----------------------------------------------------------------|

G|----7---10----------9---12------8-----------6-------5-----------|
D|8---------------10------------------8-------------------8---5---|
A|----------------------------------------6-----------------------|
E|----------------------------------------------------------------|

1:22

G|----------------------------------------------------------------|
D|5-------5-------5-------5-----------------------------------9---|
A|----------------------------5---7-------7-------7-------7-------|
E|----------------------------------------------------------------|

G|----------------------------------------------------------------|
D|10------10------10------10--9---7-------7-------7-------7-------|
A|------------------------------------------------------------7---|
E|----------------------------------------------------------------|

G|--------------------------------|
D|7-------------------------------|
A|--------------------------------|
E|--------------------------------|

G|----10--------------12--------------10--------------12----------|
D|8-----------------------12------8-----------------------12------|
A|--------8---10--------------------------8---10------------------|
E|----------------------------------------------------------------|

1:36

G|----7---10----------9---12------12----------9-------------------|
D|8---------------10------------------12--------------10----------|
A|----------------------------------------10--------------10--8---|
E|----------------------------------------------------------------|

G|----7---10----------9---12------|
D|8---------------10--------------|
A|--------------------------------|
E|--------------------------------|

G|--------------------9-------------------------------9-----------|
D|9-------9---7-----------7-------9-------9---7-----------7---9---|
A|----9-----------------------7-------9---------------------------|
E|----------------------------------------------------------------|

1:46

G|----------------------------------------------------------------|
D|----------------------------9---10------10------10------10------|
A|7-------7-------7-------7---------------------------------------|
E|----------------------------------------------------------------|

G|----------------------------------------------------------------|
D|9-------9-------9---------------------------------------9-------|
A|----------------------------9---7-------7-------7-----------7---|
E|----------------------------------------------------------------|

G|----------------------------------------------------------------|
D|----------------------------8-----------------------------------|
A|6-------6-------6-------6-------6-------6-------6-------6-------|
E|----------------------------------------------------------------|

G|----------------------------------------------------------------|
D|----------------------------------------------------------------|
A|5-------5-------5-----5-----------------------------------------|
E|----------------------------------------------------------------|

G|------------------------------------------------------------------------------------|
D|------------------------------------------------------------------------------------|
A|------------------------------------------------------------------------------------|
E|------------------------------------------------------------------------------------|

2:07

G|----7---10----------9---12------12----------9-------------------|
D|8---------------10------------------12--------------10----------| x2
A|----------------------------------------10--------------10--8---|
E|----------------------------------------------------------------|

G|----10--------------12--------------10--------------12----------|
D|8-----------------------12------8-------8-----------------------|
A|--------8---8---10--------------------------10----------10------|
E|----------------------------------------------------------------|

G|----10--------------12--------------10--------------12----------|
D|8-------8---------------12------8-------8---------------12------|
A|------------8---10--------------------------10------------------|
E|----------------------------------------------------------------|

G|----10--------------12--------------10--------------12----------|
D|8-------8---------------12------8-------8-----------------------|
A|------------8---10--------------------------10----------10------|
E|----------------------------------------------------------------|

G|----10--------------12--------------12--------------10----------|
D|8-------8---------------12------10------10--------------10------|
A|------------8---10----------10--------------10--8---------------|
E|----------------------------------------------------------------|

G|--------------------------------|
D|--------------------------------|
A|10------------------------------|

Almost there ...

Sign in to get your own page with links to favourite songs and more. You are just one click away...

Login with Facebook Login with Google