Log in

One click and you are in

Login with Facebook Login with Google

Why sign up and log in

Guitar Tabs Explorer
The Mamas And The Papas bass tabs for The dancing bear

Bass tabs

  • Tuning: Standard tuning
  • Difficulty: Beginner
-------------------------------------------------------------------
          Artist - The Mamas And The Papas
         **********************************
            Song - The Dancing Bear
           *************************
         Album - The Mamas & The Papas (1966)
        **************************************
            Tabbed By - Ayreon77
            **********************
-------------------------------------------------------------------

Tuning = Standard

NO BASS TILL 00:44


00:44
G|-----------------|
D|-------6-8---6---|
A|-6-8-9-----9---8-|
E|-----------------|


--------------------------

VERSE 1
********
G|---------------------------------|----------------------------------|
D|---------6-8----6----------------|-----6-8----6-------6-8-----------|
A|-6--8-9-------9----8-9--6-8--4-6-|-8-9------9----8-9-------9-6--8-9-|
E|---------------------------------|----------------------------------|

01:02
G|------------h---------h------|--------------|------h--|--------------|
D|-6-8---8---6-8---8---6-8---9-|--------------|-8---6-8-|--------------|
A|-----------------------------|-8-6-5-6-6--5-|---------|-8-6-5-6-6--5-|
E|-----------------------------|--------------|---------|--------------|

01:14
G|---------------|---------|
D|-8-9-8---8-9-8-|-8--6----|
A|---------------|-------9-|
E|---------------|---------|

--------------------------
01:20

BREAK
******
G|-----------------|
D|-------6-8---6---|
A|-6-8-9-----9---8-|
E|-----------------|


--------------------------
01:24

CHORUS
*******
G|---------------------------------|----------------------------------|
D|---------6-8----6----------------|-----6-8----6------------6--------|
A|-6--8-9-------9----8-9--6-8--4-6-|-8-9------9----9-6--8-9----9--8-9-|
E|---------------------------------|----------------------------------|


G|------------h-------|---------------------------|
D|-6-8---8---6-8---8--|-8--8----8--8----8--8----8-|
A|--------------------|---------------------------|
E|--------------------|---------------------------|


--------------------------
01:52

BREAK
******
G|-----------------|
D|-------6-8---6---|
A|-6-8-9-----9---8-|
E|-----------------|


--------------------------
01:56

VERSE 2
********
G|---------------------------------|----------------------------------|
D|---------6-8----6----------------|-----6-8----6-------6-8-----------|
A|-6--8-9-------9----8-9--6-8--4-6-|-8-9------9----8-9-------9-6--8-9-|
E|---------------------------------|----------------------------------|

02:09
G|------------h---------h------|--------------|------h--|--------------|
D|-6-8---8---6-8---8---6-8---9-|--------------|-8---6-8-|--------------|
A|-----------------------------|-8-6-5-6-6--5-|---------|-8-6-5-6-6--5-|
E|-----------------------------|--------------|---------|--------------|

02:21
G|---------------|---------|
D|-8-9-8---8-9-8-|-8--6----|
A|---------------|-------9-|
E|---------------|---------|


--------------------------
02:27

BREAK
******
G|-----------------|
D|-------6-8-------|
A|-6-8-9-----9-6-6-|
E|-----------------|


--------------------------
02:31

BRIDGE
*******
G|------------------|-------------------|---------------------------|
D|-9-8-9-6----------|-9-8-6-------------|-9-8-6---------------------|
A|----------9-8-9-6-|-------8--6--6-6-6-|-------8-9----------9--9-9-|
E|------------------|-------------------|-----------9-9-9--9--------|

02:44
G|----------h-----|---------------------------|
D|-8---8---6-8--8-|-8--8----8--8----8--8----8-|
A|----------------|---------------------------|
E|----------------|---------------------------|


--------------------------
02:59

BREAK
******
G|-----------------|
D|-------6-8---6---|
A|-6-8-9-----9---8-|
E|-----------------|


--------------------------
03:03

CHORUS
*******
G|---------------------------------|----------------------------------------|
D|---------6-8----6----------------|----------------6-8----6----------------|
A|-6--8-9-------9----8-9--6-8--4-6-|-8-9--8-6--8-9-------9----8-9--6-8--4-6-|
E|---------------------------------|----------------------------------------|


G|---------------------------------------|----------------------------------------|
D|-----6---------6-8----6----------------|----------------6-8----6----------------|
A|-8-9---6--8-9-------9----8-9--6-8--4-6-|-8-9--8-6--8-9-------9----8-9--6-8--4-6-|
E|---------------------------------------|----------------------------------------|


ENJOY.............

Almost there ...

Sign in to get your own page with links to favourite songs and more. You are just one click away...

Login with Facebook Login with Google