Log in

One click and you are in

Login with Facebook Login with Google

Why sign up and log in

Guitar Tabs Explorer
The Mamas And The Papas bass tabs for Nothings too good for my little girl

Nothings Too Good For My Little Girl bass tab by The Mamas And The Papas

The Mamas And The Papas bass tabs for Nothings too good for my little girl

Bass tabs

Tuning: EADG

0:08

G|------------------------------------------------|
D|5/7---5/7---5/7---5/7---7-----5-----4-----------|
A|------------------------------------------7-----|
E|------------------------------------------------|

G|------------------------------------------------------------------------------------------------|
D|------------4-----6-----7-----------------------------------7-----------4---------4-------4-----|
A|5---------5-------------------------------4-----5---------5-------5-----------------4-----------|
E|----------------------------------5-----7-------------------------------------------------------|

G|------------------------------------------------------------------------------------------------|
D|----7-------------4-----5---------5-------------------------9-----8-----7-----5-----4-----------|
A|5-----5-----7-----------------------5-----6-----7---------7-------------------------------7-----|
E|------------------------------------------------------------------------------------------------|

0:31

G|------------------------------------------------------------------------------------------------|
D|------------4-----6-----7-----------------------------------7-----------4---------4-------4-----|
A|5---------5-------------------------------4-----5---------5-------5-----------------4-----------|
E|----------------------------------5-----7-------------------------------------------------------|

G|------------------------------------------------------------------------|
D|----7-------------4-----5---------5-------------------------9-----8-----|
A|5-----5-----7-----------------------5-----6-----7---------7-------------|
E|------------------------------------------------------------------------|

G|--------------------------------|
D|7-----------7---7---7-------7---|
A|--------------------------------|
E|--------------------------------|

0:49

G|----------------------------9-------------------------------9---|
D|9-------9-------7---7-----------9-------9-------7---7-----7-----|
A|--------------9-------------------------------9-----------------|
E|----------------------------------------------------------------|

G|----------------------------9-------------------------------9---|
D|9-------9-------7---7-----7-----9-------9-------7---7-----7-----|
A|--------------9-------------------------------9-----------------|
E|----------------------------------------------------------------|

G|----------------------------9-----------------------------------|
D|9-------9-------7---7-----7-----9-------9-------7---7-------\---|
A|--------------9-------------------------------9-----------------|
E|----------------------------------------------------------------|

G|----------------------------------------------------------------|
D|4-------4-------4---4-------------------------------------------|
A|--------------4-------------5---2-------2-------2---2-------2---|
E|----------------------------------------------------------------|

G|------------------------------------------------|
D|2/7---7-----7-----7-----7-----5-----------7-----|
A|----------7-----------7-------------7-----------|
E|------------------------------------------------|

1:11

G|------------------------------------------------------------------------------------------------|
D|------------------------5-----5-----5-----5---/-9-----9-----9-----7/9-\-5-----5-----5-----5-----|
A|5-----5-----5-----5-----------------------------------------------------------------------------|
E|------------------------------------------------------------------------------------------------|

G|------------------------------------------------------------------------------------------------|
D|------------4-----4-----5-----5-----5-----5-----7-----7-----7-----7-----7-----7-----7-----7-----|
A|5-----5---------------------------------------------------------------------7-----------------9-|
E|------------------------------------------------------------------------------------------------|

1:30

G|------------------------------------------------------------------------------------------------|
D|------------6---7-8-----9-----------------------------------9-----------6---------6-------6-----|
A|7---------7-----------------------------4-6-----7---------7-------7-----------------6-----------|
E|----------------------------------7-------------------------------------------------------------|

G|------------------------------------------------------------------------------------------------|
D|------------------6-----7---------7-------------------------11----10----9-----7-----6-----4-----|
A|7-----7-----9-----------------------7-----8-----9---------9-------------------------------------|
E|----7-------------------------------------------------------------------------------------------|

1:48

G|------------------------------------------------------------------------------------------------|
D|------------6-----8-----9-----------------------------------9-----------6---------6-------6-----|
A|7---------7-----------------------------4-6-----7---------7-------7---7-------------6-----------|
E|----------------------------------7-------------------------------------------------------------|

G|------------------------------------------------------------------------|
D|------------------6-----7---------7-------------------------11----10----|
A|7-----7-----9-----------------------7-----8-----9---------9-------------|
E|----7-------------------------------------------------------------------|

G|--------------------------------|
D|9-----------9---9---9-------9---|
A|--------------------------------|
E|--------------------------------|

2:06

G|----------------------------11------------------------------11--|
D|11------11------9---9-----9-----11------11------9---9-----9-----|
A|--------------11------------------------------11----------------|
E|----------------------------------------------------------------|

G|----------------------------11------------------------------11--|
D|11------11------9---9-----9-----11------11------9---9-----------|
A|--------------11------------------------------11----------------|
E|----------------------------------------------------------------|

G|----------------------------11----------------------------------|
D|11------11------9---9-----------11------11------9---9-------\---|
A|--------------11------------------------------11----------------|
E|----------------------------------------------------------------|

G|--------------------------------|
D|6-------6-------6---6-----------|
A|--------------6-------------7---|
E|--------------------------------|

G|------------------------------------------------------------------------|
D|------------------------4/9---7/9---7/9---7/9---9-----7-----6-----------|
A|4-----4-----4-----4---------------------------------9-------------9-----|
E|------------------------------------------------------------------------|

2:28

G|------------------------------------------------------------------------------------------------|
D|------------------------7-----7-----7-----7-----------------------------7-----6-----7-----4-----|
A|7-----7-----7-----7-----------------------------4-----4-----4-----4-----------------------------|
E|------------------------------------------------------------------------------------------------|

G|------------------------------------------------------------8-----9-----11----9-----8-----------|
D|------------6-----6-----7-----7-----7-----7-----9-----11--------------------------------9-------|
A|7-----7-----------------------------------------------------------------------------------9-----|
E|------------------------------------------------------------------------------------------------|

2:46

G|------------------------------------------------------------------------------------------------|
D|------------------------7-----7-----7-----7-----------------------------7-----6-----4-----------|
A|7-----7-----7-----7-----------------------------4-----4-----4-----4-----------------------6-----|
E|------------------------------------------------------------------------------------------------|

G|------------------------------------6-----------------8-----9-----11----9---8-------------------|
D|------------6-----6-----7-----9-----------7-----9---11------------------------9-----7-----------|
A|7-----7-----------------------------------------------------------------------------------6-----|
E|------------------------------------------------------------------------------------------------|

G|------------------|
D|------4-----6-----| fades out here.
A|7-----------------|

Almost there ...

Sign in to get your own page with links to favourite songs and more. You are just one click away...

Login with Facebook Login with Google